Guitar tablature for Boxes of tigers by Dance,You're on Fire (tabbed by tinus9)
#----------------------------------PLEASE NOTE---------------------------------#
#This file is the author's own work and represents their interpretation of the #
#song. You may only use this file for private study, scholarship, or research. #
#------------------------------------------------------------------------------##

Dance,You're on Fire-Boxes of Tigers
  
Sleutel:
x:  mute
/:  slide
p:  pull-off
h:  hammer-on
b:  bend
br: Bend-release
~:  let ring

Riff 1:

Guitar 1:

E|--------------------------------------------------|                  |---     
B|--------------------------------------------------|                  |---          
G|-6-6-x-6-6---6-6-x-6-6---9-9-x-9-9-x-9-9-x-9-9-x--|                  |-6-    
D|-6-6-x-6-6---7-7-x-7-7---9-9-x-9-9-x-9-9-x-7-7-x--|  X4 Then end on  |-6- Hold,tune down vol.
A|-4-4-x-4-4---7-7-x-7-7---7-7-x-7-7-x-7-7-x-7-7-x--|                  |-4-
e|-------------5-5-x-5-5----------------------------|                  |---  

                                                                             A gets a me part
E|---------------------------------------------------------------------------------------------   
B|---------------------------------------------------------------------------------------------                       
G|-6-6-x-6-6---6-6-x-6-6---9-9-x-9-9-x-9-9-x-9-9-x---6-6-x-6-6---6-6-x-6-6---9-9-x--9-9-x--9-9-                 
D|-6-6-x-6-6---7-7-x-7-7---9-9-x-9-9-x-9-9-x-7-7-x---4-6-x-6-4---7-7-x-7-7---9-9-x--9-9-x--9-9-
A|-4-4-x-4-4---7-7-x-7-7---7-7-x-7-7-x-7-7-x-7-7-x---4-4-x-4-4---7-7-x-7-7---7-7-x--7-7-x--7-7-                 
e|-------------5-5-x-5-5-----------------------------------------5-5-x-5-5---------------------
A gets a me part
|---------|
|---------|
|-9-9-x---| Till chorus
|-9-9-x---|
|-7-7-x---|
|---------|

Then play an stand A and E for the chorus
Then the second verse

X3 play till he sing "you know everything" next                     

E|------------------------------------------------------------------------|                     
B|------------------------------------------------------------------------|                            
G|-9-9-x-9-9-x-9-9-x-9-9-x---6-6-x-6-6---6-6-x-6-6---9-9-x-9-9-x-9-9-x-9-9|  
D|-9-9-x-9-9-x-9-9-x-7-7-x---6-6-x-6-6---7-7-x-7-7---9-9-x-9-9-x-9-9-x-9-9|  
A|-7-7-x-7-7-x-7-7-x-7-7-x---4-4-x-4-4---7-7-x-7-7---7-7-x-7-7-x-7-7-x-7-7|              
e|---------------------------------------5-5-x-5-5------------------------|  

Then

E|---------------------------------------|  
B|---------------------------------------|
G|-6-6-x-6-6-x-x-6-6-x-6-6---9-9-x-9-9-x-|  
D|-6-6-x-6-6-x-x-7-7-x-7-7---9-9-x-9-9-x-|
A|-4-4-x-4-4-x-x-7-7-x-7-7---7-7-x-7-7-x-|
e|-----------x-x-5-5-x-5-5---------------|  

you wil be able to figure this part out easily don't worry just alot of muting!!

Then comes another chorus just an A and E till solo still working on that
After the solo it's just A and E again till end!!

Really easy to play.
Very awesome song by Dance,You're on Fire!!
Sorry if its not very well layed out my first time ever tabing a song :)

Tinus Botha

Please comment and let me know what you think please would appreciate it allot
---------------------------
This file passed through:
       Absolute Tabs
   http://www.tabs.co.za
---------------------------