Guitar tablature for Consider Me by Prime Circle (tabbed by kunuk)
#----------------------------------PLEASE NOTE---------------------------------#
#This file is the author's own work and represents their interpretation of the #
#song. You may only use this file for private study, scholarship, or research. #
#------------------------------------------------------------------------------##

Consider Me - Prime Circle  (Tab 1of2)
Album:  All or Nothing
Written for Lead Guitar


I have two tabs for this song since there was waaaaaaaaaaaaaaaaaaaaaay
too much to put into a single tab. This tab is written for the lead
guitar and contains the chord progressions, fills and solo. Included
as well are the power chord fingerings (“5” chords) for the final
chorus when the distortion gets cranked up...just in case you want to
get a little dirty. As well, you can add a finger to the second fret
on the first string for both the Bm/E and Dsus2 chords for a little
more flavour. This turns them into Bm and D chords, respectively.

The other tab contains the bass line that provides a solid backbone
and really drives the song. I wrote it while playing along on my bass,
but it works when on guitar as well.

With two tabs, you can print this one for yourself, the other one for
your buddy and kick it hard from the start.

Here are the chords used in the song for quick reference:
       A       A5    Bm/E     Bm      B5    Dsus2     D       D5             
e:-----0--------------0-------2---------------0-------2---------------
B:-----2--------------3-------3---------------3-------3---------------
G:-----2--------------4-------4---------------2-------2--------7------
D:-----2-------7------4-------4-------9-------0-------0--------7------
A:-----0-------7----------------------9------------------------5------
E:-----0-------5----------------------7-------------------------------

Have fun! Please let me know if there any changes/suggestions you have
to make the tab better,
Your Friendly Neighbourhood Kunuk – kunuk@rocketmail.com

======================================================================

INTRO:
Dsus2.....Dsus2.....Bm/E.....A.....


VERSE:
Dsus2                                            Dsus2
Do you know who you’re friends are and what they say
Bm/E                                        A
Do you know what’s coming round again and again?

e|-0----------------0-------|
B|---0--------------3-------|
G|-----2------------2-------|
D|---------2-1------0-------|
A|--------------------------|
E|--------------------------|
Dsus2                                     Dsus2
Do you know if you’re acting like someone else?
Bm/E                                   A
Do you know if it’s dangerous or the safest bet?

e|-0----------------0-------|
B|---0--------------3-------|
G|-----2------------2-------|
D|---------2-1------0-------|
A|--------------------------|
E|--------------------------|

Dsus2                 Dsus2
Cause I’m here waiting for
Bm/E              A
I’m here changing more


CHORUS:
Dsus2        A             Dsus2
Consider me, consider you, consider the world
                    Bm/E
And what we put it through

e|-0----------------0-------|
B|---0--------------3-------|
G|-----2------------2-------|
D|---------2-1------0-------|
A|--------------------------|
E|--------------------------|


VERSE:
D sus2                               Dsus2
Is it always the same or just moving along?
Bm/E                               A
Do you have to put that face up to act strong?
Dsus2               Bm/E                          A
And I can’t take anymore, but I’m here, I’m here, I’m here


CHORUS:
Dsus2         A             Dsus2
Consider me, consider you, consider the world
Bm/E
And what we put it through
Dsus2         A             Dsus2
Consider me, consider you, consider the world
Bm/E
And what we put it through


BRIDGE & GUITAR SOLO:
Played along with the vocalist using lyrics below...
e:-------------------------------------------------------|
B:-------------------------------------------------------|
G:-11-9-12-11---11-9-12-11---11-9-12-11-9---9-7-9-11-9-7-|
D:-------------------------------------------------------|
A:-------------------------------------------------------|
E:-------------------------------------------------------|

e:-------------------------------------------------------|
B:-------------------------------------------------------|
G:-11-9-12-11---11-9-12-11---7-7-9-9-11-11-9-7---7-7-9-9-|
D:-------------------------------------------------------|
A:-------------------------------------------------------|
E:-------------------------------------------------------|

I’m here waiting for, something better just to come along
I’m here waiting all this time, waiting for the world
To change its mind
I’m here waiting for something better to come along
I’ll take a chance on you, you take a chance on me

CHORUS: (Section repeats and vocals overlap – high distortion)
Dsus2               A                    Dsus2
Consider me, consider you, consider the world
Bm/E
And what we put it through

Dsus2                  Dsus2
I’m here waiting for, something better just to come along
Bm/E                             A
I’m here waiting all this time, waiting for the world to change its
mind


OUTRO:  (Taken from the second tab.  Repeat the following to fade...)
e:-------------|----------------|-------------|----------------||
B:-------------|----------------|-------------|----------------||
G:-------------|----------------|-------------|----------------||
D:-------------|----------------|-------------|----------------||
A:-5--5--5--5--|-5--5--5---5-4--|-5--5--5--5--|-5--5--5---5-4--||
E:-------------|----------------|-------------|----------------||

======================================================================

---------------------------
This file passed through:
       Absolute Tabs
   http://www.tabs.co.za
---------------------------