Guitar tablature for Sonrotse by Die Heuwels Fantasties (tabbed by kunuk)
#----------------------------------PLEASE NOTE---------------------------------#
#This file is the author's own work and represents their interpretation of the #
#song. You may only use this file for private study, scholarship, or research. #
#------------------------------------------------------------------------------##

Sonrotse - Die Heuwels Fantasties
Album: Die Heuwels Fantasties



This is an intermediate level tab filled with electronic voicings
making it a bit more challenging for the guitar player.  This song
sounds amazing ‘unplugged’ (a.k.a. acoustic style) so is worth the
effort to really listen to the piece.

The song is in a simple key common to many tunes. There are
transcriptions of solos and riffs for all instruments, so you can make
this tab as easy or difficult as you wish.

Here are the chords used in the song for quick reference:
      Am      C       Em      F       G      G-bar      
e:-----0-------0-------0-------1-------3-------3-------
B:-----1-------1-------0-------1-------0-------3-------
G:-----2-------0-------0-------2-------0-------4-------
D:-----2-------2-------2-------3-------0-------5-------
A:-----0-------3-------2-------3-------2-------5-------
E:-----0---------------0-------1-------3-------3-------

Have fun! Please let me know if there any changes/suggestions you have
to make the tab better,
Your Friendly Neighbourhood Kunuk – kunuk@rocketmail.com

======================================================================

INTRO:
-The intro builds, adding new instruments to each line. The first
stage is only electronic
e:---------------------------------------|
B:---------------------------------------|
G:---------------------------------------|
D:---------------------------------------|
A:-3-3-3-3---3-3-3-3---3-3-3-3---3-3-3-3-|
E:---------------------------------------|

- The second stage, continues with the first instrument and adds a
guitar playing chords
   C        Em        Am        F   G (X2)
e:---------------------------------------|
B:---------------------------------------|
G:---------------------------------------|
D:---------------------------------------|
A:-3-3-3-3---3-3-3-3---3-3-3-3---3-3-3-3-|
E:---------------------------------------|

-The third stage, builds again adding a riff over the existing stage
   C       Em       Am        F  G     C        Em      Am    F G (X2)
e:------------------------------------|------------------------------|
B:------------------------------------|------------------------------|
G:------------------------------------|------------------------------|
D:------------------------------------|------------------------------|
A:-3-3-3-3--3-3-3-5--2-2-2-2--2-2-2-3-|-------------------------3~~~-|
E:------------------------------------|-5-5-5-5--5-5-5-5--0~~-1------|


       C              Em
As die son bo hierdie rotse opkom
     Am             F            G
Gaan almal weet wat ek en jy nog altyd weet
   C             Em
'n Mens het sy limiet
                         Am                  F
Al wat jy het is wat die wêreld vir jou bied
        C
Ek weet ons is uniek
Am                      F
Ek weet ek ens ons was generiese gedaantes
                  G
Wat generies in mekaar in pas
   C
My elmboog omhoog
Am         F
Gereeld te hoog gelig
G
Vroumens ons moet vlug


   C       Em       Am       F   G     C        Em      Am     F   G  
e:------------------------------------|------------------------------|
B:------------------------------------|------------------------------|
G:------------------------------------|------------------------------|
D:------------------------------------|------------------------------|
A:-3-3-3-3--3-3-3-5--2-2-2-2--2-2-2-3-|-------------------------3~~~-|
E:------------------------------------|-5-5-5-5--5-5-5-5--0~~-1------|
                                                                                                                                           Vroumens ons moet vlug
   C       Em       Am       F   G     C        Em      Am     F   G  
e:------------------------------------|------------------------------|
B:------------------------------------|------------------------------|
G:------------------------------------|------------------------------|
D:------------------------------------|------------------------------|
A:-3-3-3-3--3-3-3-5--2-2-2-2--2-2-2-3-|-------------------------3-2~-|
E:------------------------------------|-5-5-5-5--5-5-5-5--0~~-1------|


C             F
Want ek's mos gees vat
     C      G G
Kaal keiser
Am       F      Am
Omgekoop en omgedop
                         F
Net my liggaam loop hier rond

Donderwolke
      G
Drama-oë
                F
Sien net wat jy glo
                 G
Die peilings het al lankal bewys
G
Ons moet hier uit
G
Vrouments ons moet vlug

      C
As 'n bekende gesig

Soos 'n vreemdeling lyk
        F
Windloopneus

Al weer
       C             G
Al die stuifmeel opgeruik

   C                    Am
'n Mens oorskry gereeld sy limiet
         F
Al's wat daar was

Het ek gevat
G
Al's wat die wêreld verbied


-The first bar plays between the verses, the rest repeats over the
lyrics below
e:---------------|---------------|------------------|---------------|
B:---------------|---------------|------------------|---------------|
G:---------------|---------------|------------------|---------------|
D:---------------|---------------|------------------|---------------|
A:---7-3-5-7-----|---7-3-5-7-----|---3---1-3-----1--|---5-1-3-5~~~--|
E:-5---------5---|-5---------5---|-1---4-----1-4----|-3-------------|


         C
Ek weet, ek weet
Am                       F
Ek ens ons was generiese gedaantes
                G
Wat generies in mekaar in pas
   C
My elmboog omhoog
Am         F
Gereeld te hoog gelig
G
Vroumens ons moet vlug


PIANO RIFF:
e:------------------------------------------------------|
B:-----------------8-5----------------------------------|
G:-5-----9-5---5-------7---7-9-7-5-7-----7-10-9-7-5-7---|
D:---7-5---------9-------------------5-9----------------|
A:------------------------------------------------------|
E:------------------------------------------------------|
                                  Vroumens ons moet vlug

e:------------------------------------------------------|
B:---10-8--------------------------8-6------------------|
G:-5-------5-9-7--5-9-7-5---7----5-----7-----7-10-9-5-5-|
D:------------------------9----9---------5-9------------|
A:------------------------------------------------------|
E:------------------------------------------------------|

C                  G
Ek probeer my bes, ek sweer ek (X4)


OUTRO:
-“Ek sweer ek probeer” repeats over the tab below (X8)
-The tab then plays through once on its own
e:---------------------------|-----------------------------|
B:---------------------------|-----------------------------|
G:----------------------2----|------------------------2----|
D:--------5--2-------------5-|--------5--2---------------5-|
A:-3--2-3--------3--2-3------|-3--2-3--------3--3-2-3------|
E:---------------------------|-----------------------------|

e:---------------------------|-----------------------------|
B:---------------------------|-----------------------------|
G:----------------------2----|------------------------2--5-|
D:--------5--2-------------5-|--------5--2-----------------|
A:-3--2-3--------3--2-3------|-3--2-3--------3--3-2-3------|
E:---------------------------|-----------------------------|


PIANO RIFF: (Repeats)
e:------------------------------------------------------|
B:-----------------8-5----------------------------------|
G:-5-----9-5---5-------7---7-9-7-5-7-----7-10-9-7-5-7---|
D:---7-5---------9-------------------5-9----------------|
A:------------------------------------------------------|
E:------------------------------------------------------|
         Ek sweer ek probeer,            vroumens ons moet vlug
                                                                                            
e:------------------------------------------------------|
B:---10-8--------------------------8-6------------------|
G:-5-------5-9-7--5-9-7-5---7----5-----7-----7-10-9-5-5-|
D:------------------------9----9---------5-9------------|
A:------------------------------------------------------|
E:------------------------------------------------------|

-These chords play to fade
C.....F.....C.....G.....C.....F.....C.....G.....C.....

======================================================================
Here is an English translation for all of those people out there like
myself, who dig the music, but are new to the language:
======================================================================

As the sun rises above these rocks
You and I still know
A man has his limits
All you have is what the world offers you

I know we are unique
I know I was so our generic forms
Which generically fits together
My elbow upwards
Often too high, yellowish
Women we must flee

Because I'm at least spirit catch
Naked emperor
To purchase and to fail
My body just walking around here
Thunderclouds
Drama-eye
See what you think
The questionnaires had been long since proven
We need out here
Women we must flee

As a familiar face
Like a stranger looks
Wind runny nose
All weather
All the pollen that smell
A man regularly exceeded its limit
That's all there was
I took
All that the world's forbids
I tried my best
I swear I tried

======================================================================

---------------------------
This file passed through:
       Absolute Tabs
   http://www.tabs.co.za
---------------------------