Guitar tablature for Gedagte vir die dag by Straatligkinders (tabbed by kunuk)
#----------------------------------PLEASE NOTE---------------------------------#
#This file is the author's own work and represents their interpretation of the #
#song. You may only use this file for private study, scholarship, or research. #
#------------------------------------------------------------------------------##

Gedagte Vir Die Dag - Straatligkinders
[Thought for the Day]
Album: Bloeisels



The way this tab is set up: the rhythm guitar plays the chords above
the tabs, and the second guitar plays the tabs.  For the most part,
the rhythms are played in triples, but if you listen to the song you
should be able to figure it out.

Here are the chords used in the song for quick reference:
        A5     C5     D5     E5     E5    F#5     G5     G5
e:---------------------------------------------------------------
B:-------------------------------------------------------7-------
G:-------------5------7-------------9--------------------7-------
D:------7------5------7------2------9------4------5------5-------
A:------7------3------5------2------7------4------5--------------
E:------5--------------------0-------------2------3--------------

You may have noticed that I have included multiple versions for some
of the power chords. This is because, depending on the progression of
the chords, you may prefer to use alternative fingerings.  Also, the
guitarists often plays the same chords in different positions for
effect.

Have fun! Please let me know if there any changes/suggestions you have
to make the tab better,
Your Friendly Neighbourhood Kunuk – kunuk@rocketmail.com

======================================================================

INTRO:                 
e:---------------|---------------|---------------|-----------------|
B:---------------|---------------|---------------|-----------------|
G:---------------|---------------|---------------|-----------------|
D:-------2-------|-------2-------|-------2-------|-2--2-2----7-5-4-|
A:---------------|---------------|---------------|-2--2-2----7-5-4-|
E:-0h2h3---0-3-2-|-0h2h3---0-2-3-|-0h2h3---0-3-2-|-0--0-0----5-3-2-|

                 
e:---------------|---------------|---------------|-----------------|
B:---------------|---------------|---------------|-----------------|
G:---------------|---------------|---------------|-----------------|
D:-------2-------|-------2-------|-------2-------|-2--2-2----7-5-4-|
A:---------------|-----------0---|---------------|-2--2-2----7-5-4-|
E:-0h2h3---0-3-2-|-0h2h3---0---3-|-0h2h3---0-3-2-|-0--0-0----5-3-2-|

  E5          E5  E5           E5       A5-G5-F#5
e:---------------|---------------|---------------|-----------------|
B:---------------|---------------|---------------|-----------------|
G:---------------|---------------|---------------|-----------------|
D:-------2-------|-------2-------|-------2-------|-2--2-2----7-5-4-|
A:---------------|---------------|---------------|-2--2-2----7-5-4-|
E:-0h2h3---0-3-2-|-0h2h3---0-2-3-|-0h2h3---0-3-2-|-0--0-0----5-3-2-|

  E5          E5  E5           E5       A5-G5-F#5
e:---------------|---------------|---------------|-----------------|
B:---------------|---------------|---------------|-----------------|
G:---------------|---------------|---------------|-----------------|
D:-------2-------|-------2-------|-------2-------|-2--2-2----7-5-4-|
A:---------------|-----------0---|---------------|-2--2-2----7-5-4-|
E:-0h2h3---0-3-2-|-0h2h3---0---3-|-0h2h3---0-3-2-|-0--0-0----5-3-2-|

   E5         C5         G5         E5-G5-D5
e:---------------------------------------------|
B:-------------------------------------7-------|
G:-9--9-9-----5--5-5----------------9--7--7~~~-|
D:-9--9-9-----5--5-5-----5--5-5-----9--5--7~~~-|
A:-7--7-7-----3--3-3-----5--5-5-----7-----5~~~-|
E:-----------------------3--3-3----------------|


VERS:
E5             E5       C5
Het jy al ooit gewonder wat gaan aan daar onder
G5     G5              E5   G5   D5
Al die maskers wat die wêreld daagliks dra
E5            E5       C5
Dit fassineer my altyd wanneer ek vinger wys
G5       G5            E5  G5  D5
Na mense as ek sélf 'n masker dra


KOOR:
E5       C5
Dink aan wat jy doen
D5          G5    
En dink aan wat jy sê
E5       C5
Dink aan wie jy is
D5      G5    
En dink aan

E5    C5    D5     G5
Whoooooooa, whoooooooa
E5    C5    D5     G5
Whoooooooa, whoooooooa


VERS:
E5        E5             C5
Halwe waarheid is net so goed soos 'n leuen
G5      G5       D5  E5  G5  D5
Moenie alles glo wat jy hoor nie
E5           E5  
Jesus jy wil ons vashou
C5       G5       G5                     
Al draai ons soms ons rug op jou
       D5  E5  G5  D5
Jy bly hier en veg vir ons


KOOR:
E5       C5
Dink aan wat jy doen
D5          G5    
En dink aan wat jy sê
E5       C5
Dink aan wie jy is
D5      G5    
En dink aan

E5    C5    D5     G5
Whoooooooa, whoooooooa
E5    C5    D5     G5
Whoooooooa, whoooooooa


INTERLUDE:
   E5   E5  C5   E5   E5 C5  G5   G5  C5   G5  G5   F#5 (X2)
e:-------------------------|------------------------------|
B:-------------------------|------------------------------|
G:----------5------------5-|----------5-------------------|
D:-2-2--2-2-5---2-2--2-2-5-|-5-5--5-5-5---5-5-5--5-5-5--4-|
A:-2-2--2-2-3---2-2--2-2-3-|-5-5--5-5-3---5-5-5--5-5-5--4-|
E:-0-0--0-0-----0-0--0-0---|-3-3--5-5-----3-3-3--3-3-3--2-|

   E5  E5   C5   E5   E5
e:-----------------------|
B:-----------------------|
G:----------5------------|
D:-2-2--2-2-5---2-2--2-2-|
A:-2-2--2-2-3---2-2--2-2-|
E:-0-0--0-0-----0-0--0-0-|


KOOR:
E5       C5
Dink aan wat jy doen
D5          G5    
En dink aan wat jy sê
E5       C5
Dink aan wie jy is
D5      G5    
En dink aan

E5    C5    D5     G5
Whoooooooa, whoooooooa
E5    C5    D5     G5
Whoooooooa, whoooooooa


OUTRO:
  E5          E5  E5           E5   A5-G5-F#5-E5
e:---------------|---------------|---------------|----------------||
B:---------------|---------------|---------------|----------------||
G:---------------|---------------|---------------|-7-7------------||
D:-------2-------|-------2-------|-------2-------|-7-7--7-7-5-4-2-||
A:---------------|---------------|---------------|-5-5--7-7-5-4-2-||
E:-0h2h3---0-3-2-|-0h2h3---0-2-3-|-0h2h3---0-3-2-|------5-5-3-2-0-||


======================================================================
Here is an English translation for all of those people out there like
myself, who dig the music, but are new to the language:
======================================================================

Have you ever wondered what goes on under
All the masks that the world puts on everyday
It always fascinates me when I point a finger
At all of them, when I put a mask on myself

CHORUS:
Think about what you do
And think about what you say
Think about who you are
And think about
Whoooooooa, whoooooooa

A Half-truth is just as good as a lie
Don't believe everything that you hear
Jesus, you want to hold us
Even though we turn our backs on you
You stay here and fight for us

CHORUS: (2X)
Think about what you do
And think about what you say
Think about who you are
And think about
Whoooooooa, whoooooooa

======================================================================

---------------------------
This file passed through:
       Absolute Tabs
   http://www.tabs.co.za
---------------------------