Guitar tablature for Get some by Soil7t7
#----------------------------------PLEASE NOTE---------------------------------#
#This file is the author's own work and represents their interpretation of the #
#song. You may only use this file for private study, scholarship, or research. #
#------------------------------------------------------------------------------##


Tabbed by: Hugh Hunt
     Song: Get Some
    Album: Soil 7t7
   Artist: Soil 7t7
   Tuning: Standard
  Effects: Phaser
Comments: Guitar distorted throughout song

I've tabbed the whole song out, not just the individual riffs, so you can sit down
and play right through. Do go through the whole thing, even the repeats, because
there are subtle variations.

Intro
                *  *           = Harmonics
e|-----|-----|-----12--|-------|
B|-----|-----|--12-----|-------|
G|-----|-----|---------|-------|
D|-----|-----|---------|-------|
A|-----|-----|---------|-------|
E|-----|-----|---------|--12\--|

e|---------------|---------------|---------------|---------------|
B|---------------|---------------|---------------|---------------|
G|---------------|---------------|---------------|---------------|
D|----3-2--------|----3-2--------|----3-2--------|----3-2--------|
A|--------3-2----|--------3-2----|--------3-2----|--------3-2----|
E|--0---------3--|--0---------3--|--0---------3--|--0---------3--|

e|---------------|---------------|---------------|---------------|
B|---------------|---------------|---------------|---------------|
G|---------------|---------------|---------------|---------------|
D|----3-2--------|----3-2--------|----3-2--------|----3-2--------|
A|--------3-2----|--------3-2----|--------3-2----|--------3-2----|
E|--0---------3--|--0---------3--|--0---------3--|--0---------3--|
                                                          . . .  = Palm Mute
   .w/Phaser
e|--------|---------|---------|---------|
B|--------|---------|---------|---------|
G|--------|---------|---------|---------|
D|--------|---------|---------|---------|
A|--------|--x-x-x--|--x-x-x--|--x-x-x--|
E|--0-----|--x-x-x--|--x-x-x--|--x-x-x--|
             . . .     . . .     . . .  = Pick Scrape

Verse

  .w/Phaser
e|---------|---------|---------|---------|
B|---------|---------|---------|---------|
G|---------|---------|---------|---------|
D|---------|---------|---------|---------|
A|--x-x-x--|--x-x-x--|--x-x-x--|--x------|
E|--x-x-x--|--x-x-x--|--x-x-x--|--x------|
    . . .     . . .     . . .     .      = Pick Scrape

  .w/Phaser
e|---------|---------|---------|---------|
B|---------|---------|---------|---------|
G|---------|---------|---------|---------|
D|---------|---------|---------|---------|
A|--x-x-x--|--x-x-x--|--x-x-x--|--x------|
E|--x-x-x--|--x-x-x--|--x-x-x--|--x------|
    . . .     . . .     . . .     .      = Pick Scrape

Chorus

e|---------------|---------------|---------------|---------------|
B|---------------|---------------|---------------|---------------|
G|---------------|---------------|---------------|---------------|
D|----3-2--------|----3-2--------|----3-2--------|----3-2--------|
A|--------3-2----|--------3-2----|--------3-2----|--------3-2----|
E|--0---------3--|--0---------3--|--0---------3--|--0---------3--|

e|---------------|---------------|---------------|---------------|
B|---------------|---------------|---------------|---------------|
G|---------------|---------------|---------------|---------------|
D|----3-2--------|----3-2--------|----3-2--------|----3-2--------|
A|--------3-2----|--------3-2----|--------3-2----|--------3-2----|
E|--0---------3--|--0---------3--|--0---------3--|--0---------3--|

e|---------------|---------------|---------------|---------------|
B|---------------|---------------|---------------|---------------|
G|---------------|---------------|---------------|---------------|
D|----3-2--------|----3-2--------|----3-2--------|----3-2--------|
A|--------3-2----|--------3-2----|--------3-2----|---------------|
E|--0---------3--|--0---------3--|--0---------3--|--0------------|

Verse

   .w/Phaser
e|--------|---------|---------|--------|
B|--------|---------|---------|--------|
G|--------|---------|---------|--------|
D|--------|---------|---------|--------|
A|--------|--x-x-x--|--x------|--------|
E|--0-----|--x-x-x--|--x------|--0-----|
             . . .     .                = Pick Scrape                                               
        
e|---------------|---------------|---------------|---------------|
B|---------------|---------------|---------------|---------------|
G|---------------|---------------|---------------|---------------|
D|----5-4--------|----5-4--------|----5-4--------|----5-4--------|
A|--------5-4----|--------5-4----|--------5-4----|--------5-4----|
E|--2---------5--|--2---------5--|--2---------5--|--2---------5--|

Chorus

e|---------------|---------------|---------------|---------------|
B|---------------|---------------|---------------|---------------|
G|---------------|---------------|---------------|---------------|
D|----3-2--------|----3-2--------|----3-2--------|----3-2--------|
A|--------3-2----|--------3-2----|--------3-2----|---------------|
E|--0---------3--|--0---------3--|--0---------3--|--0------------|

Bridge

e|-------------------------|-------------------------|
B|-------------------------|-------------------------|
G|--------------------3----|-------------------------|
D|--------3h5-5-5-5-5---5--|--------3h5-5-5-5-5------|
A|--2-x-x------------------|--2-x-x-------------1----|
E|--0-x-x------------------|--0-x-x---------------3--|
                . . .                     . . .      = Palm Mute

e|-------------------------|-----------------------|
B|-------------------------|-----------------------|
G|--------------------3----|------------4-3-2------|
D|--------3h5-5-5-5-5---5--|--------3h5-------5----|
A|--2-x-x------------------|--2-x-x----------------|
E|--0-x-x------------------|--0-x-x----------------|
                . . .                              = Palm Mute

e|-------------------------|-------------------------|
B|-------------------------|-------------------------|
G|--------------------3----|-------------------------|
D|--------3h5-5-5-5-5---5--|--------3h5-5-5-5-5------|
A|--2-x-x------------------|--2-x-x-------------1----|
E|--0-x-x------------------|--0-x-x---------------3--|
                . . .                     . . .      = Palm Mute

e|-------------------------|-----------------------|
B|-------------------------|-----------------------|
G|--------------------3----|------------4-3-2------|
D|--------3h5-5-5-5-5---5--|--------3h5-------5----|
A|--2-x-x------------------|--2-x-x----------------|
E|--0-x-x------------------|--0-x-x----------------|
                . . .                              = Palm Mute

    .w/Phaser
e|--------|---------|
B|--------|---------|
G|--------|---------|
D|--------|---------|
A|--------|---------|
E|--0-----|--x-x-0--|

e|---------------|---------------|---------------|---------------|
B|---------------|---------------|---------------|---------------|
G|---------------|---------------|---------------|---------------|
D|----5-4--------|----5-4--------|----5-4--------|----5-4--------|
A|--------5-4----|--------5-4----|--------5-4----|--------5-4----|
E|--2---------5--|--2---------5--|--2---------5--|--2---------5--|

e|---------------|---------------|---------------|---------------|
B|---------------|---------------|---------------|---------------|
G|---------------|---------------|---------------|---------------|
D|----3-2--------|----3-2--------|----3-2--------|----3-2--------|
A|--------3-2----|--------3-2----|--------3-2----|---------------|
E|--0---------3--|--0---------3--|--0---------3--|--0------------|

Verse

   .w/Phaser
e|--------|---------|---------|---------|
B|--------|---------|---------|---------|
G|--------|---------|---------|---------|
D|--------|---------|---------|---------|
A|--------|--x-x-x--|--x-x-x--|--x-x-x--|
E|--0-----|--x-x-x--|--x-x-x--|--x-x-x--|
             . . .     . . .     . . .  = Pick Scrape

e|---------------|---------------|---------------|---------------|
B|---------------|---------------|---------------|---------------|
G|---------------|---------------|---------------|---------------|
D|----5-4--------|----5-4--------|----5-4--------|----5-4--------|
A|--------5-4----|--------5-4----|--------5-4----|--------5-4----|
E|--2---------5--|--2---------5--|--2---------5--|--2---------5--|

Chorus

e|---------------|---------------|---------------|---------------|
B|---------------|---------------|---------------|---------------|
G|---------------|---------------|---------------|---------------|
D|----3-2--------|----3-2--------|----3-2--------|----3-2--------|
A|--------3-2----|--------3-2----|--------3-2----|--------3-2----|
E|--0---------3--|--0---------3--|--0---------3--|--0---------3--|

e|---------------|---------------|---------------|---------------|
B|---------------|---------------|---------------|---------------|
G|---------------|---------------|---------------|---------------|
D|----3-2--------|----3-2--------|----3-2--------|----3-2--------|
A|--------3-2----|--------3-2----|--------3-2----|--------3-2----|
E|--0---------3--|--0---------3--|--0---------3--|--0---------3--|

Outro

   .w/Phaser
e|--------|---------|---------|---------|
B|--------|---------|---------|---------|
G|--------|---------|---------|---------|
D|--------|---------|---------|---------|
A|--------|---------|---------|---------|
E|--0-----|---------|---------|---------|
    .Hold note _________________________.

                       *  *   = Harmonics
OverDub :         e|-----12--| (clean)
                   B|--12-----|
                   G|---------|
                   D|---------|
                   A|---------|
                   E|---------|

---------------------------
This file passed through:
       Absolute Tabs
   http://www.tabs.co.za
---------------------------