Guitar tablature for Speedo's en Crocs by Robbie Wessels (tabbed by kunuk)
#----------------------------------PLEASE NOTE---------------------------------#
#This file is the author's own work and represents their interpretation of the #
#song. You may only use this file for private study, scholarship, or research. #
#------------------------------------------------------------------------------##

Speedo's en Crocs - Robbie Wessels
Album: Afrika Sonsak



This song is an intermediate level tab, as it is easiest to play with
bar-chords. The rhythms are simple, and the chords are few, making
this song extremely fun to play. The only thing missing is the lyrics.
If you have the lyrics, could you please send me a copy so I can
update the tab? Thanks in advance.

Here are the chords used in the song for quick reference:
        Bb     Bb5      C     C-bar     F       F5
e:------1---------------0-------3-------1--------------
B:------3---------------1-------5-------1--------------
G:------3-------3-------0-------5-------2--------------
D:------3-------3-------2-------5-------3-------3------
A:------1-------1-------3-------3-------3-------3------
E:--------------------------------------1-------1------

Have fun! Please let me know if there any changes/suggestions you have
to make the tab better,
Your Friendly Neighbourhood Kunuk – kunuk@rocketmail.com

======================================================================

INTRO:
F.....F.....F.....F.....

VERS1:
F......F......F.....F.....
Bb.....Bb.....F.....F.....
C.....C.....Bb.....Bb.....
F.....F.....F......

KOOR:
F.....F.....Bb.....F.....
F.....F.....C......C.....
F.....F.....Bb.....F.....
F.....C......F.....F.....

VERS2:
F......F......F.....F.....
Bb.....Bb.....F.....F.....
C.....C.....Bb.....Bb.....
F.....F.....F......

KOOR:
F.....F.....Bb.....F.....
F.....F.....C......C.....
F.....F.....Bb.....F.....
F.....C......F.....F.....

VERS3:
-The first half of this verse is played muffled, almost sounds like
power chords.  An easy way to get this effect  is to play the chords
as bar-chords but only strum the bottom three strings.  Then as you
strum, loosen up with your left hand to muffle the sound

F5.....F5.....F5.....F5.....
Bb5..... Bb5.....F5.....F5.....
C.....C.....Bb.....Bb.....
F.....F.....F......

KOOR:
F.....F.....Bb.....F.....
F.....F.....C......C.....
F.....F.....Bb.....F.....
F.....C......F.....F.....

GUITAR SOLO:
e:-------------------------------------------------------------------|
B:-------------------------------------------------------------------|
G:-------------------------------------------------------------------|
D:-------------------------------------------------------------------|
A:-10-8-8-10-8-8-10-8-8-10-8-8-10slideup--11-10-8-10-8---------------|
E:-----------------------------------------------------10-8-10-8-5-8-|

e:-------------------------------------------------------------------|
B:-------------------------------------------------------------------|
G:-------------------------------------------------------------------|
D:-------------------------------------------------------------------|
A:-slideup8-8-7-su8-8-7-su8-8-7-su8---10-10-10-10-10-10-12-10-8-10~~-|
E:-------------------------------------------------------------------|

VERS4:
F......F......F.....F.....
Bb.....Bb.....F.....F.....
C.....C.....Bb.....Bb.....
F.....F.....F......

KOOR:
F.....F.....Bb.....F.....
F.....F.....C......C.....
F.....F.....Bb.....F.....
F.....C......F.....F.....

======================================================================

---------------------------
This file passed through:
       Absolute Tabs
   http://www.tabs.co.za
---------------------------