Guitar tablature for Fly Away by Downfall (tabbed by Nevay)
#----------------------------------PLEASE NOTE---------------------------------#
#This file is the author's own work and represents their interpretation of the #
#song. You may only use this file for private study, scholarship, or research. #
#------------------------------------------------------------------------------##

Standard E tuning (drop-D)

INTRO / VERSE (gt1+gt2 clean) x6
4|-4---4---4-4-4-444--5---5---5-5-5-555-
5|-5---5---5-5-5-555--5---5---5-5-5-555-
6|-0---0---0-0-0-000--0---0---0-0-0-000-

4|-8---8---8-8-8-888---7---7---7-7-7-777-|
5|-5---5---5-5-5-555---5---5---5-5-5-555-|
6|-0---0---0-0-0-000---0---0---0-0-0-000-|

CHORUS (gt1+gt2 dist) x2
4|-4---4---4-4-4-444--5---5---5-5-5-555-
5|-5---5---5-5-5-555--5---5---5-5-5-555-
6|-0---0---0-0-0-000--0---0---0-0-0-000-

4|-7---7---7-7-7-777--5---5---5h8--8-8-8p7--7-7-|
5|-7---7---7-7-7-777--5---5---5----5-5-5----5-5-|
6|-7---7---7-7-7-777--5---5---5----5-5-5----5-5-|

(gt1 / dist)
4|-4            -|
5|-5 (fade out) -|
6|-0            -|

VERSE (gt2 clean) x4
4|-4---4---4-4-4-444--5---5---5-5-5-555-
5|-5---5---5-5-5-555--5---5---5-5-5-555-
6|-0---0---0-0-0-000--0---0---0-0-0-000-

4|-8---8---8-8-8-888---7---7---7-7-7-777-|
5|-5---5---5-5-5-555---5---5---5-5-5-555-|
6|-0---0---0-0-0-000---0---0---0-0-0-000-|

CHORUS (gt1+gt2 dist) x2
4|-4---4---4-4-4-444--5---5---5-5-5-555-
5|-5---5---5-5-5-555--5---5---5-5-5-555-
6|-0---0---0-0-0-000--0---0---0-0-0-000-

4|-7---7---7-7-7-777--5---5---5h8--8-8-8p7--7-7-|
5|-7---7---7-7-7-777--5---5---5----5-5-5----5-5-|
6|-7---7---7-7-7-777--5---5---5----5-5-5----5-5-|

BRIDGE (gt1+gt2 dist) x2
4|-4-------4-------5-------5------
5|-5--0-0-05--0-0-05--0-0-05--0-0-
6|-0--0-0-00--0-0-00--0-0-00--0-0-
      . . .   . . .   . . .   . .

4|--8-------8------8\7----7/8----8\7----|
5|-05--0-0-05--00005----005----005---00-|
6|-00--0-0-00--00000----000----000---00-|
   .   . . .   ....     ..     ..    ..

(gt1 dist)
4|-4            -|
5|-5 (fade out) -|
6|-0            -|

(gt2 clean) x2
4|-4---4---4-4-4-444--5---5---5-5-5-555-
5|-5---5---5-5-5-555--5---5---5-5-5-555-
6|-0---0---0-0-0-000--0---0---0-0-0-000-

4|-8---8---8-8-8-888---7---7---7-7-7-777-|
5|-5---5---5-5-5-555---5---5---5-5-5-555-|
6|-0---0---0-0-0-000---0---0---0-0-0-000-|

CHORUS (gt1+gt2 dist) x2
4|-4---4---4-4-4-444--5---5---5-5-5-555-
5|-5---5---5-5-5-555--5---5---5-5-5-555-
6|-0---0---0-0-0-000--0---0---0-0-0-000-

4|-7---7---7-7-7-777--5---5---5h8--8-8-8p7--7-7-|
5|-7---7---7-7-7-777--5---5---5----5-5-5----5-5-|
6|-7---7---7-7-7-777--5---5---5----5-5-5----5-5-|

OUTRO (gt1+gt2 dist)x2
4|-4-------4-------5-------5------
5|-5--0-0-05--0-0-05--0-0-05--0-0-
6|-0--0-0-00--0-0-00--0-0-00--0-0-
      . . .   . . .   . . .   . .

4|--8-------8------8\7----7/8----8\7----|
5|-05--0-0-05--00005----005----005---00-|
6|-00--0-0-00--00000----000----000---00-|
   .   . . .   ....     ..     ..    ..

(gt1+gt2 dist)
4|-4            -|
5|-5 (fade out) -|
6|-0            -|

---------------------------
This file passed through:
       Absolute Tabs
   http://www.tabs.co.za
---------------------------