Guitar tablature for Impending by Lithium
#----------------------------------PLEASE NOTE---------------------------------#
#This file is the author's own work and represents their interpretation of the #
#song. You may only use this file for private study, scholarship, or research. #
#------------------------------------------------------------------------------##


Lithium - Impending
Album : Zennon Supertroopers
Tabbed By Shaun Pretorius

Intro: [Riff also played inbetween chorus and verse]
Drumfills...while the guitar plays this:
Keep repeating this note for about 38 seconds,
then the verse riff comes in...
E------------------------
B------------------------
G------------------------
D------------------------
A-5-5-5-5-5-5-5-5-5-5-5-5
E------------------------

Verse:
E-------------
B-------------
G-------------
D---3/5-x-5-3~
A---3/5-x-5-3~
E-0-1/3-x-3-1~

CHORUS:
E----------------
B----------------
G-4-4-4-4-2-2-2-2
D-4-4-4-4-2-2-2-2
A-2-2-2-2-0-0-0-0
E----------------

Post Chorus:
"Silence is cold and numb"
E----------------
B----------------
G-4-4-7-7-2-2-2-2
D-4-4-7-7-2-2-2-2
A-2-2-5-5-0-0-0-0
E----------------

Bridge 1:
E---------------------
B---------------------
G-7--12--12--12--12-10
D---------------------
A-5--10--10--10--10--8
E---------------------

Bridge 2:
E------------------------
B------------------------
G-----4------7------2----
D---4------7------2---2--
A-2------5------0-------0
E------------------------

Solo Fill (End Of Song):
Guitar 2 can play the post chorus riff
with this...
E--------------------------------
B--------------------------------
G-11-11-11-11--9-11-12-11--7/12/7
D--------------------------------
A--9--9--9--9--7--9-10--9--5/10/5
E--------------------------------

solo continued...
E----------------------------------
B----------------------------------
G-11--9-11-11-11-11--9-11-12-11-14-
D----------------------------------
A--9--7--9--9--9--9--7--9-10--9-12-
E----------------------------------

solo continued...
E---------------------
B---------------------
G-11-11-11--9-11--9--7
D---------------------
A--9--9--9--7--9--7--5
E---------------------

Order:
*Intro
*Verse
*Chorus
*Intro riff
*Verse
*Chorus
*Post Chorus
*Verse
*Bridge 1
*Chorus
*Post Chorus
*Bridge 2
*Chorus
*Solo fill=


---------------------------
This file passed through:
       Absolute Tabs
   http://www.tabs.co.za
---------------------------