Guitar tablature for Hello by Prime Circle
#----------------------------------PLEASE NOTE---------------------------------#
#This file is the author's own work and represents their interpretation of the #
#song. You may only use this file for private study, scholarship, or research. #
#------------------------------------------------------------------------------##

     SONG: Hello  
   ARTIST: Prime Circle
    ALBUM: Hello Crazy World
  WEBSITE:

     TYPE: Guitar Tablature
TABBED BY: Dist0rteD
    EMAIL:
COMMENTS:

Hello - Prime Circle                                    

     Intro and verse:
                                                   
E||--------------------------|--------------------------|
B||--------------------------|--------------------------|
G||--7--7--7--7--7--7--7--7--|--------------------------|
D||--7--7--7--7--7--7--7--7--|--7--7--7--7--7--7--7--7--|
A||--5--5--5--5--5--5--5--5--|--7--7--7--7--7--7--7--7--|
E||--------------------------|--5--5--5--5--5--5--5--5--|


                                                        
--------------------------|---------------------------||
--------------------------|---------------------------||
--------------------------|--------------------------*||
--5--5--5--5--5--5--5--5--|--7--7--7--7--7--7--7--7--*||
--5--5--5--5--5--5--5--5--|--7--7--7--7--7--7--7--7---||
--3--3--3--3--3--3--3--3--|--5--5--5--5--5--5--5--5---||


Chorus:
                                                     
--------------------------|--------------------------|
--------------------------|--------------------------|
--7--7--7--7--7--7--7--7--|--------------------------|
--7--7--7--7--7--7--7--7--|--7--7--7--7--7--7--7--7--|
--5--5--5--5--5--5--5--5--|--7--7--7--7--7--7--7--7--|
--------------------------|--5--5--5--5--5--5--5--5--|


                                                            
--------------------------|--------------------------|
--------------------------|--------------------------|
--------------------------|--------------------------|
--9--9--9--9--9--9--9--9--|--5--5--5--5--5--5--5--5--|
--9--9--9--9--9--9--9--9--|--5--5--5--5--5--5--5--5--|
--7--7--7--7--7--7--7--7--|--3--3--3--3--3--3--3--3--|

Fill: (somethings got to change....)
--------------------------|--------------------------|
--------------------------|--------------------------|
--7--7--7--7--7--7--7--7--|--------------------------|
--7--7--7--7--7--7--7--7--|--5--5--5--5--5--5--5--5--|
--5--5--5--5--5--5--5--5--|--5--5--5--5--5--5--5--5--|
--------------------------|--3--3--3--3--3--3--3--3--|


Im pretty sure this is right... its an extremely easy song to play,
just listen to get the timing right.

This is just the basic chord progression. Nothing special.
Comments welcome at tabs@cognition.za.net Dist0rteD


---------------------------
This file passed through:
       Absolute Tabs
   http://www.tabs.co.za
---------------------------