Bass tablature for Fine Again by Seether
#----------------------------------PLEASE NOTE---------------------------------#
#This file is the author's own work and represents their interpretation of the #
#song. You may only use this file for private study, scholarship, or research. #
#------------------------------------------------------------------------------##

Artist: Seether
  Song: Fine Again
Album: Disclaimer
Tabber: Brad

Ok i have seen a bass tab for this, but they say its D-tuned and shaun says they play it in
standard tuning. So i watched the video over and over again and discovered that Dale plays
the 3rd string dominantly on the verse.

Intro=Guitar

Verse
|---------------------------------------------|
|---------------------------------------------|
|2-2-22/5-5-5-55\0-0-00-----------------------|x8
|-----------------------33-3-33---------------|

Chorus
|---------------------------------------------|
|---------------------------------------------|
|-------55-5-55\2-2-22/7-7-7-77---------------|x4
|2-2-22---------------------------------------|

Fill
|-------------|
|-------------|
|-7/0---------|
|-------------|

= "I feel the dream in me expire and there's no one left to blame it on" the bass plays nothing on this
sentence

Verse
|---------------------------------------------|
|---------------------------------------------|
|2-2-22/5-5-5-55\0-0-00-----------------------|x8
|-----------------------33-3-33---------------|

Chorus
|---------------------------------------------|
|---------------------------------------------|
|-------55-5-55\2-2-22/7-7-7-77---------------|x4
|2-2-22---------------------------------------|

Interlude ( play the bass soft )
|--------------------------------------------------|
|--------------------------------------------------|
|5~-----2~------5~-----2~------5~-----2~-----5~---2|
|--------------------------------------------------|

Quick Solo
|---------------------------------------------|
|---------------------------------------------|
|-------55-5-55\2-2-22/7-7-7-77---------------|X2
|2-2-22---------------------------------------|

Chorus
|---------------------------------------------|
|---------------------------------------------|
|-------55-5-55\2-2-22/7-7-7-77---------------|x10
|2-2-22---------------------------------------|


Thats the end of the song,

I seriously hope you enjoyed playing this coz it is such a cool song. Anyway if ya have comments send em all to

nagle5000@yahoo.com

---------------------------
This file passed through:
       Absolute Tabs
   http://www.tabs.co.za
---------------------------