Guitar tablature for Not Human by Shaun V (tabbed by kunuk)
#----------------------------------PLEASE NOTE---------------------------------#
#This file is the author's own work and represents their interpretation of the #
#song. You may only use this file for private study, scholarship, or research. #
#------------------------------------------------------------------------------##

Not Human - Shaun V
Soundtrack:  Bagkat!



This tab goes out to those individuals who find themselves drawn to
soundtracks...or rather the pickup form of soundtrack. This song is
smooth and slow, with a great hook. The chords in this tab make it
easy to play, the only challenge coming in from the transcribed piano
lines. Just listen along with the song, and you should be able to
figure it out pretty quickly.

Here are the chords used in the song for quick reference:
        Am      C       D       D7      Em      G
e:------0-------0-------2-------2-------0-------3-------
B:------1-------1-------3-------1-------0-------0-------
G:------2-------0-------2-------2-------0-------0-------
D:------2-------2-------0-------0-------2-------0-------
A:------0-------3-----------------------2-------2-------
E:--------------------------------------0-------3-------

Have fun! Please let me know if there any changes/suggestions you have
to make the tab better,
Your Friendly Neighbourhood Kunuk – kunuk@rocketmail.com

======================================================================

INTRO:
   G                            Em
e:-3--------------------------|-0--------------------------|
B:-0--------------------------|-0--------------------------|
G:-0--------------------------|-0--------------------------|
D:-0---0---0---0---0---0---0--|-2---0---0---0---0---0---0--|
A:-2--------------------------|-2--------------------------|
E:-3-----3---3---3---3---3----|-0-----3---3---3---3---3----|

   C                            G
e:-0--------------------------|-3--------------------------|
B:-1--------------------------|-0--------------------------|
G:-0--------------------------|-0--------------------------|
D:-2---0---0---0---0---0---0--|-0---0---0---0---0---0---0--|
A:-3--------------------------|-2--------------------------|
E:-------3---3---3---3---3----|-3-----3---3---3---3---3----|


VERSE1:
    G            Em        C        G
You breathe your sigh, you cry your tears
    G          Em       C        G
You smile that smile, I hold you near
  G         Em     C     G
I feel your lips upon my skin
    G         Em        C        D7  
The warmth of hold that lies within


CHORUS:
G        Em                C              Am
I tell myself that I’m not human, I’m not human
G            Em                C
I’ve come to know that I’m not human
        Am            G     C
I’m not human without you
        G    D7
Without you


VERSE2:
G                    Em                     C
You’ve shown me that time; that time can be stopped
                 Am              G
This moment with you is all I’ve got
                     Em                     C
You’ve shown me that pain; that pain can be lost
              G
When I’m will you


CHORUS:
G        Em                C              Am
I tell myself that I’m not human, I’m not human
G            Em                C
I’ve come to know that I’m not human
        Am            G
I’m not human without you


BRIDGE:
G            D       G
I want us to run far away
             D              Em
Find our own place and hide away
             D                 D7
I want to be lost inside these feelings
             G
You’ve given me


OUTRO:
G        Em                C              Am
I tell myself that I’m not human, I’m not human
            G
I’ve fallen down
             Em                C
I’ve come to know that I’m not human
        Am            G
I’m not human without you


G.....Em.....C.....G.....

             Em             C      Am
That I’m not human, I’m not human
        G
Without you

======================================================================

---------------------------
This file passed through:
       Absolute Tabs
   http://www.tabs.co.za
---------------------------