Guitar tablature for Picasso by Downfall (tabbed by Nevay)
#----------------------------------PLEASE NOTE---------------------------------#
#This file is the author's own work and represents their interpretation of the #
#song. You may only use this file for private study, scholarship, or research. #
#------------------------------------------------------------------------------##

INTRO (gt1 dist)                                              
5|-----------------------------------5h6-6-6p5-5-3-|  |
6|--0-0-0--0-0-0-0-0-0-0--0-0-0--0-0---------------|  |
    . .    . . . . . . .  . .    . .                  |
                                                      | x3
5|-----------------------------------5h6-6-6p5-5-8-|  |
6|--0-0-0--0-0-0-0-0-0-0--0-0-0--0-0---------------|  |
    . .    . . . . . . .  . .    . .                  |

gt2 (dist) on 2nd gt1 riff
3|-----------------------------------7h8-8-8p7-7-5-|  |
4|-------------------------------------------------|  |
5|-------------------------------------------------|  |
6|--0-0-0--0-0-0-0-0-0-0--0-0-0--0-0---------------|  |
    . .    . . . . . . .  . .    . .                  |
                                                      | x2
3|-----------------------------------7h8-8-8p7-7-10-| |
4|--------------------------------------------------| |
5|--------------------------------------------------| |
6|--0-0-0--0-0-0-0-0-0-0--0-0-0--0-0----------------| |
     . .    . . . . . . .  . .    . .
  
  (gt1+2 dist)                                                
3|------------------------<5>-|
4|-----1--0-0--0-----1--------|
5|-0-0-1--0-0--0-0-0-1--0-----|
6|-0-0-1--0-0--0-0-0-1--0-----| x4
   . .           . .    .

VERSE (gt1+2 dist)
5|-0-0-0--0-0-0-|
6|-0-0-0--0-0-0-| x4
   . .    . . .

3|----------------------------------7/8-8-8\7-7-5-|
4|------------------------------------------------|
5|-0-0-0--0-0-0-0-0-0-0--0-0-0--0-0-5/6-6-6\5-5-3-|
6|-0-0-0--0-0-0-0-0-0-0--0-0-0--0-0---------------|
   . .    . . . . . . .  . .    . .

3|----------------------------------7/8-8-8\7-7-10-|
4|-------------------------------------------------|
5|-0-0-0--0-0-0-0-0-0-0--0-0-0--0-0-5/6-6-6\5-5-8--|
6|-0-0-0--0-0-0-0-0-0-0--0-0-0--0-0----------------|
   . .    . . . . . . .  . .    . .

3|------------------------<5>-|
4|-----1--0-0--0-----1--------|
5|-0-0-1--0-0--0-0-0-1--0-----|
6|-0-0-1--0-0--0-0-0-1--0-----| x2
   . .           . .    .

CHORUS (gt1+2 dist)
3|-10-10-10-10-10-10-10-10-10-10-10-10-10-10-10-10-10-10-10-10-10-|
4|-10-10-10-10-10-10-10-10-10-10-10-10-10-10-10-10-10-10-10-10-10-|
5|--8--8--8--8--8--8--8--8--8--8--8--8--8--8--8--8--8--8--8--8--8-|
6|--8--8--8--8--8--8--8--8--8--8--8--8--8--8--8--8--8--8--8--8--8-|

3|------------------------<5>-|
4|-----1--0-0--0-----1--------|
5|-0-0-1--0-0--0-0-0-1--0-----|
6|-0-0-1--0-0--0-0-0-1--0-----| x2
                        .

3|-10-10-10-10-10-10-10-10-10-10-10-10-10-10-10-10-10-10-10-10-10-|
4|-10-10-10-10-10-10-10-10-10-10-10-10-10-10-10-10-10-10-10-10-10-|
5|--8--8--8--8--8--8--8--8--8--8--8--8--8--8--8--8--8--8--8--8--8-|
6|--8--8--8--8--8--8--8--8--8--8--8--8--8--8--8--8--8--8--8--8--8-|

3|------------------------------------------------<7>-|
4|-0-0-0-0-01--0-0-0-0-01--0-0-0-0-01--0-0-0-0-00-----|
5|-0-0-0-0-01--0-0-0-0-01--0-0-0-0-01--0-0-0-0-00-----|
6|-0-0-0-0-01--0-0-0-0-01--0-0-0-0-01--0-0-0-0-00-----| x2
           .            .          .           ..

VERSE (gt1+2 dist)
5|-0-0-0--0-0-0-|
6|-0-0-0--0-0-0-| x6
   . .    . . .

3|----------------------------------7/8-8-8\7-7-5-|
4|------------------------------------------------|
5|-0-0-0--0-0-0-0-0-0-0--0-0-0--0-0-5/6-6-6\5-5-3-|
6|-0-0-0--0-0-0-0-0-0-0--0-0-0--0-0---------------|
    . .    . . . . . . .  . .    . .

3|----------------------------------7/8-8-8\7-7-10-|
4|-------------------------------------------------|
5|-0-0-0--0-0-0-0-0-0-0--0-0-0--0-0-5/6-6-6\5-5-8--|
6|-0-0-0--0-0-0-0-0-0-0--0-0-0--0-0----------------|
    . .    . . . . . . .  . .    . .

3|------------------------<5>-|
4|-----1--0-0--0-----1--------|
5|-0-0-1--0-0--0-0-0-1--0-----|
6|-0-0-1--0-0--0-0-0-1--0-----| x2
   . .           . .    .

CHORUS (gt1+2 dist)
3|-10-10-10-10-10-10-10-10-10-10-10-10-10-10-10-10-10-10-10-10-10-|
4|-10-10-10-10-10-10-10-10-10-10-10-10-10-10-10-10-10-10-10-10-10-|
5|--8--8--8--8--8--8--8--8--8--8--8--8--8--8--8--8--8--8--8--8--8-|
6|--8--8--8--8--8--8--8--8--8--8--8--8--8--8--8--8--8--8--8--8--8-|

3|------------------------<5>-|
4|-----1--0-0--0-----1--------|
5|-0-0-1--0-0--0-0-0-1--0-----|
6|-0-0-1--0-0--0-0-0-1--0-----| x2
                        .

3|-10-10-10-10-10-10-10-10-10-10-10-10-10-10-10-10-10-10-10-10-10-|
4|-10-10-10-10-10-10-10-10-10-10-10-10-10-10-10-10-10-10-10-10-10-|
5|--8--8--8--8--8--8--8--8--8--8--8--8--8--8--8--8--8--8--8--8--8-|
6|--8--8--8--8--8--8--8--8--8--8--8--8--8--8--8--8--8--8--8--8--8-|

3|------------------------------------------------<7>-|
4|-0-0-0-0-01--0-0-0-0-01--0-0-0-0-01--0-0-0-0-00-----|
5|-0-0-0-0-01--0-0-0-0-01--0-0-0-0-01--0-0-0-0-00-----|
6|-0-0-0-0-01--0-0-0-0-01--0-0-0-0-01--0-0-0-0-00-----| x2
           .            .            .            ..

BRIDGE (gt1 dist)
5|-5-5-5-6-6-6-3-3-3-5-5-5-3-3-5-5-| x8

3|-------8--------5------7-|
4|-0-0-0-7--0-0-0-4--0-0-6-|
5|-0-0-0-6--0-0-0-3--0-0-5-|
6|-0-0-0----0-0-0----0-0---| x3
   . . .    . . .    . .

3|-------8--------5--------|
4|-0-0-0-7--0-0-0-4--1-1-1-|
5|-0-0-0-6--0-0-0-3--1-1-1-|
6|-0-0-0----0-0-0----1-1-1-|
   . . .    . . .    . . .

3|-------8--------5------7-|
4|-0-0-0-7--0-0-0-4--0-0-6-|
5|-0-0-0-6--0-0-0-3--0-0-5-|
6|-0-0-0----0-0-0----0-0---| x3
   . . .    . . .    . .

3|-------8-----------|
4|-0-0-0-7--11111111-|
5|-0-0-0-6--11111111-|
6|-0-0-0----11111111-|
   . . .

CHORUS (gt1+2 dist)
3|-10-10-10-10-10-10-10-10-10-10-10-10-10-10-10-10-10-10-10-10-10-|
4|-10-10-10-10-10-10-10-10-10-10-10-10-10-10-10-10-10-10-10-10-10-|
5|--8--8--8--8--8--8--8--8--8--8--8--8--8--8--8--8--8--8--8--8--8-|
6|--8--8--8--8--8--8--8--8--8--8--8--8--8--8--8--8--8--8--8--8--8-|

3|------------------------<5>-|
4|-----1--0-0--0-----1--------|
5|-0-0-1--0-0--0-0-0-1--0-----|
6|-0-0-1--0-0--0-0-0-1--0-----|

3|-10-10-10-10-10-10-10-10-10-10-10-10-10-10-10-10-10-10-10-10-10-|
4|-10-10-10-10-10-10-10-10-10-10-10-10-10-10-10-10-10-10-10-10-10-|
5|--8--8--8--8--8--8--8--8--8--8--8--8--8--8--8--8--8--8--8--8--8-|
6|--8--8--8--8--8--8--8--8--8--8--8--8--8--8--8--8--8--8--8--8--8-|

3|------------------------------------------------<7>-|
4|-0-0-0-0-01--0-0-0-0-01--0-0-0-0-01--0-0-0-0-00-----|
5|-0-0-0-0-01--0-0-0-0-01--0-0-0-0-01--0-0-0-0-00-----|
6|-0-0-0-0-01--0-0-0-0-01--0-0-0-0-01--0-0-0-0-00-----|
           .            .          .           ..

3|----------------------------------------------|
4|-0-0-0-0-01--0-0-0-0-01--0-0-0-0-01--01-01-0m-|
5|-0-0-0-0-01--0-0-0-0-01--0-0-0-0-01--01-01-0m-|
6|-0-0-0-0-01--0-0-0-0-01--0-0-0-0-01--01-01-0m-|
           .           .           .         .

---------------------------
This file passed through:
       Absolute Tabs
   http://www.tabs.co.za
---------------------------