Guitar tablature for Deur die straights by Hugo
#----------------------------------PLEASE NOTE---------------------------------#
#This file is the author's own work and represents their interpretation of the #
#song. You may only use this file for private study, scholarship, or research. #
#------------------------------------------------------------------------------##

     SONG: Deur die straights (Intro)
   ARTIST: Hugo
    ALBUM: Deur die straights
  WEBSITE:

     TYPE: Guitar Tablature
TABBED BY: Die amateur
    EMAIL: s25300637@tuks.co.za
COMMENTS: Great song van Hugo.

Capo agter die 3de fret


      G
e:--------------------------0-------*------------------------0--------------------  
b:----1-1-3-1--1-3-1--1-3-1---1-3-1-*--1-1-3-1--1-3-1--1-3-1---1-3-1--------------
g:----------------------------------*---------------------------------------------
d:----------------------------------*---------------------------------------------
a:----------------------------------*---------------------------------------------
e:----3-3-3-3--3-3-3--3-3-----3-3-3-*--3-3-3-3--3-3-3--3-3-3-3-3-3-3--------------

        G

e:------0-------*------0-----0----------------------------------------------------  
b:----1-1-1-3-0-*--1-1---1-3-1----------------------------------------------------
g:------0-------*-----------------------------------------------------------------
d:------0-------*-----------------------------------------------------------------
a:------2-------*-----------------------------------------------------------------
e:----3-3-3-3-3-*--3-3-3-3-3-3----------------------------------------------------



Deur die straights is al op die website, maar die intro kort, toe dog ek, ek is maar nice en

laai dit vir julle op.

Ek het nog nie weer die liedjie geluister voordat ek dit gesubmit het nie (nie baie profesioneel

nie, maar ek is immers die 'amateur'!), kan iemand net asb vir

my laat weet of die 6de snaar (boonste een) wel gespeel moet word.  

Dankie vir die wat afrikaanse songs tab.  

Dit word baie waardeer.

Enjoy !!


---------------------------
This file passed through:
       Absolute Tabs
   http://www.tabs.co.za
---------------------------