Guitar tablature for Mense Hier (Strikfontein) by Dans Dans Lisa (tabbed by G3752)
#----------------------------------PLEASE NOTE---------------------------------#
#This file is the author's own work and represents their interpretation of the #
#song. You may only use this file for private study, scholarship, or research. #
#------------------------------------------------------------------------------##

Dans Dans Lisa - Mense hier(Strikfontein)

Ek se Ahoy Daar! Ek is op Twitter! So maak 'n plan en volg die man @GabrielRoux3752

Palm mute:        *

Natural harmonic: #

Mute:             X

    Db   Bb   Gb     Eb
Eb|----------------------|
Bb|----------------------|
Gb|----------------------|
Db|-0----9-----5-----2---|
Ab|-0----9-----5-----2---|
Db|-0----9-----5-----2---|

_____________________________________________________________________________________________

Intro:
_____________________________________________________________________________________________


Eb|-----------------------------------------------------------------------|
Bb|-----------------------------------------------------------------------|
Gb|-----------------------------------------------------------------------|
Db|-9-9-9-9--9-9-9-9--9-9-9-9--9-7-7--5-5-5-5--5-5-5-5--5-5-5-5--5-5-7-7--|
Ab|-9-9-9-9--9-9-9-9--9-9-9-9--9-7-7--5-5-5-5--5-5-5-5--5-5-5-5--5-5-7-7--|
Db|-9-9-9-9--9-9-9-9--9-9-9-9--9-7-7--5-5-5-5--5-5-5-5--5-5-5-5--5-5-7-7--|
    * * * *  * * * *  * * * *  * * *  * * *    * * *    * * *    * *

Eb|-----------------------------------------------------------------------|
Bb|-----------------------------------------------------------------------|
Gb|-----------------------------------------------------------------------|
Db|-0-0-0-0-0--0-0-0-0--0-0-0-0--0-0-0-0--2-0-2-4-2-0-x--2-0-2-4-2-0--2-0-|
Ab|-0-0-0-0-0--0-0-0-0--0-0-0-0--0-0-0-0--2-0-2-4-2-0-x--2-0-2-4-2-0--2-0-|
Db|-0-0-0-0-0--0-0-0-0--0-0-0-0--0-0-0-0--2-0-2-4-2-0-x--2-0-2-4-2-0--2-0-|
    * * * *    * * *    * * *    * * * *
_______________________________________________________________________________________________

Verse 1
_____________________________________________________________________________________________

Bb    Gb      Db
...Onthou jy nog

Eb            Bb Gb     Db  
hoe om uit jou nate te bars?


Eb|---------------------------------|
Bb|---------------------------------|
Gb|---------------------------------|
Db|--2-0-2-4-2-0-x--2-0-2-4-2-0--2-0|
Ab|--2-0-2-4-2-0-x--2-0-2-4-2-0--2-0|
Db|--2-0-2-4-2-0-x--2-0-2-4-2-0--2-0|

Bb     Gb     Db    
...onthou jy nog

Eb        Bb  Gb           Db
hoe om te sukkel om in te pas?

Eb|---------------------------------|
Bb|---------------------------------|
Gb|---------------------------------|
Db|--2-0-2-4-2-0-x--2-0-2-4-2-0--2-0|
Ab|--2-0-2-4-2-0-x--2-0-2-4-2-0--2-0|
Db|--2-0-2-4-2-0-x--2-0-2-4-2-0--2-0|

_____________________________________________________________________________________________

Pre-chorus
_____________________________________________________________________________________________


Bb
ek weet nie meer of ek

Gb
weet hoe om op te tree nie

Db
ek weet nie meer of ek

Eb             Gb
weet waneer is ek verkeerd nie

_____________________________________________________________________________________________

Chorus:
_____________________________________________________________________________________________

    x8  x8  x8   x8  x8   x8  x8   x8
Eb|------------------------------------|
Bb|------------------------------------|
Gb|-11--7---12---11--14---7---12---11--|
Db|-X---x---x----x---x----x---x----x---| X2
Ab|-9---5---10---9---12---5---10---9---|
Db|------------------------------------|


jy is nog steeds


my maatstaaf vir normaal


die mense is so anders hier


die mense hier is mal

_____________________________________________________________________________________________

Verse 2
_____________________________________________________________________________________________


Bb    Gb       Db
...en soek jy nog

    Eb               Bb
'n rede om te gaan slaap

          Gb                Db
of wonder jy hoekom jy moet opstaan


Eb|-----------------|
Bb|-----------------|
Gb|-----------------|
Db|--2-0-2-4-2-0-x--|
Ab|--2-0-2-4-2-0-x--|
Db|--2-0-2-4-2-0-x--|

Bb      Gb       Db
...en sukkel jy nog

    Eb           Bb
om mense te verstaan

       Gb               Db
of pas jy nou maar ook aan

Eb|---------------------------------|
Bb|---------------------------------|
Gb|---------------------------------|
Db|--2-0-2-4-2-0-x--2-0-2-4-2-0--2-0|
Ab|--2-0-2-4-2-0-x--2-0-2-4-2-0--2-0|
Db|--2-0-2-4-2-0-x--2-0-2-4-2-0--2-0|

_____________________________________________________________________________________________

Pre-chorus
_____________________________________________________________________________________________


Bb
ek weet nie meer of ek

Gb
weet hoe om op te tree nie

Db
partykeer weet ek nie

Eb             Gb
hoe om myself te motifeer nie

_____________________________________________________________________________________________

Chorus:
_____________________________________________________________________________________________

    x8  x8  x8   x8  x8   x8  x8   x8
Eb|------------------------------------|
Bb|------------------------------------|
Gb|-11--7---12---11--14---7---12---11--|
Db|-X---x---x----x---x----x---x----x---| X2
Ab|-9---5---10---9---12---5---10---9---|
Db|------------------------------------|

jy is nog steeds


my maatstaaf vir normaal


die mense is so anders hier


die mense hier is mal

_____________________________________________________________________________________________

Bridge:
_____________________________________________________________________________________________

    X4  X4  X4  X3  X1
Eb|-------------------|
Bb|-------------------|
Gb|-7---9---11--7---6-|
Db|-x---x---x---x---x-| X8
Ab|-5---7---9---5---4-|
Db|-------------------|

die mense hier is mal

die mense hier

die mense hier is mal

die mense hier

_____________________________________________________________________________________________

outro:
_____________________________________________________________________________________________

    X4  X4   X4  X3  X1
Eb|----------------------|
Bb|----------------------|
Gb|-11--12---14---7---6--|
Db|-x---x----x----x---x--| X10
Ab|-9---10---12---5---4--|
Db|----------------------|

ja ek soek ook soms en ek vra ook hoekom


maar tenminste weet ek alles is nie tevergeefs nie


ja ek soek ook soms en ek vra ook hoekom


maar tenminste weet ek alles is nie tevergeefs nie


alles is nie tevergeefs nie


alles is nie tevergeefs nie


_____________________________________________________________________________________________

End on:
_____________________________________________________________________________________________

    
Eb|-------------------|
Bb|-------------------|
Gb|---#5----#7--------|
Db|--------------#5---|
Ab|-------------------|
Db|-------------------|



______________________________________________________________________________________________

Guitar 2: speel dit 'n paar keer in die 2de verse
______________________________________________________________________________________________

Eb|-9----9----9----9----10----10----10----10------|
Bb|---10---10---10---10----10----10----10----10---|
Gb|-----------------------------------------------|
Db|-----------------------------------------------| x3
Ab|-----------------------------------------------|
Db|-----------------------------------------------|

Eb|-9----9----9----9----10----|
Bb|---10---10---10---10-------|
Gb|---------------------------|
Db|---------------------------|
Ab|---------------------------|
Db|---------------------------|

______________________________________________________________________________________________

Guitar 3: speel dit na guitar 2 daai stuk eenkeer gespeel het
______________________________________________________________________________________________

Eb|---------------------------|
Bb|---------------------------|
Gb|---------------------------|
Db|-14-14-14-12---------------|  x3
Ab|-------------12------------|
Db|---------------------------|

Eb|---------------------------|
Bb|---------------------------|
Gb|---------------------------|
Db|---------------------------|  
Ab|---------------------------|
Db|--12-14-16-14-12-14-12-----|

---------------------------
This file passed through:
       Absolute Tabs
   http://www.tabs.co.za
---------------------------