Guitar tablature for Relatiwiteit by Klopjag
#----------------------------------PLEASE NOTE---------------------------------#
#This file is the author's own work and represents their interpretation of the #
#song. You may only use this file for private study, scholarship, or research. #
#------------------------------------------------------------------------------##


ARTIST: KLOPJAG
SONG: Relatiwiteit
ALBUM: 13/02
Tabbed by: Renier Henning

Intro:
  G             C             G         C          G C G C   G           C
|-----10-3-10-10-8-7h8-7-3-2-2-3-5-3-3-3p2-2-0---|---------------------------|
|----------------------------------------------3-|-----------3-3-3-3-1-0-----|
|------------------------------------------------|-----------------------2-0-|
|------------------------------------------------|---------------------------|
|--2---------------------------------------------|---------------------------|
|-3----------------------------------------------|---------------------------|
   D
|-------------------------------------|
|-3-3-3-3-1-3-3/5~ -3---3h5~ -5/7-5-3-|
|-------------------------------------|
|-------------------------------------|
|-------------------------------------|
|-------------------------------------|

G               C
Sal jy tot die been toe wees
G                C
Reguit wees met my?
G            C
Sal jy onverbiddelik bly
       G                  C
Op die kortste pad tussen jou en my?
G         C
En my vertel hoekom jy soms
G         C       G          C
Berekend s� : Jy ken my nie.
G               C
Hoe sal ek jou ken,
G             C        D
As ek my nie ken nie?

Koor :
      G    Em
Ek verlo�n jou
     C                 D
So opreg dat selfs die haan
G           Em         C     D
Kromrug, verle� vir my kraai.
      G               Em
Want so lank die son my wete buig
C                  D
Verstaan ek van my min :
G            Em
Net dat ek gebo� is,
C            D
Deel van jou boggelliefde,
G              Em
Deel van ons gekromde gewete,
C          D
Ons skeel waarheid
       G              Em
Wat vergeefs al 13 verlore bewegings
C          D                G
Van my aanwesigheid wou verklaar.
   Em            C            D
En nooit aan jou binneste kon raak nie.
    G     Em         C    D
Net altyd, so gee ek voor,
   G     
Ek is.

   G   C   G   C   G   C    D
e|-7~ -3~ -7~ -3~ -7~ -3~ -|

Dus die grade van die driehoek
Tussen jou en my en altyd
Bly onvolledig, illusie
Van ons verstaan relatief
Tot ons gewaande bewustheid.
Ek ken jou nie, maar ek weet van jou,
Want jy speel so dikwels
In my raaisels.

Koor
Net altyd so gee ek voor,ek is.
-------------------------------------------------------------------------------------------------

---------------------------
This file passed through:
       Absolute Tabs
   http://www.tabs.co.za
---------------------------