Bass tablature for That Girl's Gonna Be (The Death o' Me) by The Cheap Bad Habits (tabbed by Jed)
#----------------------------------PLEASE NOTE---------------------------------#
#This file is the author's own work and represents their interpretation of the #
#song. You may only use this file for private study, scholarship, or research. #
#------------------------------------------------------------------------------##

THAT GIRL’S GONNA BE (THE DEATH o’ ME)

http://soundcloud.com/the-cheap-bad-habits/the-cheap-bad-habits-that-1

INTRO
G-------------------------------------------------------------------------
D-------------------------------------------------------------------------
A-------------------------------------------------------------------------
E--0-0-3-0-0-------0-0-3-0-0------0-0-3-0-0-------0-0-3-0-0--

VERSE
G-------------------------------------------------------------------------
D-------------------------------------------------------------------------
A-------------------------------------------------------------------------
E--0-0-3-0-0-0-0-3-0-0---0-0-3-0-0-0-0-3-0-0----------------- - X2

G-------------------------------------------------------------------------
D-------------------------------------------------------------------------
A--2-2-5-2-2--2-2-5-2-2---0-0-3-0-0-0-0-3-0-0----------------
E-------------------------------------------------------------------------

G-------------------------------------------------------------------------
D-------------------------------------------------------------------------
A-------------------------------------------------------------------------
E--5-5-3-5--5-5-3-5-3-5-3------------------------------------------

CHORUS
G-------------------------------------------------------------------------
D-------------------------------------------------------------------------
A-------------------------------------------------------------------------
E--0-0-3-5-------------------------------------------------------------- X3

G-------------------------------------------------------------------------
D-------------------------------------------------------------------------
A-------------------------------------------------------------------------
E--5-5-3-5--------------------------------------------------------------

SOLO
G-------------------------------------------------------------------------------------
D------------------------------------------------------------------------------------
A--7-7-10-7-7-7-7-10-7-7-7-7-10-7-7-7-7-10-10-10-10-10-10-10---
E-------------------------------------------------------------------------------------

G-------------------------------------------------------------------------
D-------------------------------------------------------------------------
A-------------------------------------------------------------------------
E--0-0-3-0-0-0-0-3-(B) ---------------------------------------------- X4

G-------------------------------------------------------------------------
D-------------------------------------------------------------------------
A--2-2-5-2-2-2-2-5-(B) ----------------------------------------------
E-------------------------------------------------------------------------  X2

G-------------------------------------------------------------------------
D-------------------------------------------------------------------------
A-------------------------------------------------------------------------
E--0-0-3-0-0-0-0-3-(B) ---------------------------------------------- X2

SONG STRUCTURE
• (GUITAR INTRO)
• INTRO
• VERSE
• CHORUS
• INTRO
• VERSE
• CHORUS
• SOLO
• INTRO
• VERSE
• CHORUS
• INTRO / END


LYRICS

It’s so hard to leave what you already know
But I got a feeling that its time I should go
I’m starting to think that one of these days
That girl’s gonna ride me right into the grave

That girl’s gonna be… X3
The death o’ me

My heart turns to stone when I look in her eye
I’m hard as a rock but she’s bleeding me dry
I can’t help but feel that it’s taking its toll
If I don’t look out I’m gonna pay with my soul

That girl’s gonna be… X3
The death o’ me

I’m working so hard just to keep her in style
My only reward is that sweet, sweet smile
She’s got a taste for champagne and that little white line
The way that she moves could make a grown man cry

That girl’s gonna be… X3
The death o’ me

---------------------------
This file passed through:
       Absolute Tabs
   http://www.tabs.co.za
---------------------------