Guitar tablature for Bogey by Lithium
#----------------------------------PLEASE NOTE---------------------------------#
#This file is the author's own work and represents their interpretation of the #
#song. You may only use this file for private study, scholarship, or research. #
#------------------------------------------------------------------------------##


Lithium - Bogey
Album : Zennon Supertroopers
Tabbed by: Shaun Pretorius

Intro:
Eb-------------------------------------------------
Bb-------------------------------------------------
Gb-12-12-12-15-15-12-12-10--12-12-12-17-17-12-12-11
Db-------------------------------------------------
Ab-10-10-10-13-13-10-10--8--10-10-10-15-15-10-10--9
Eb-------------------------------------------------

Eb-------------------------------------------
Bb-------------------------------------------
Gb-12-12-12-15-15-12-12-10--9-9-9-10-10-12-12
Db-------------------------------------------
Ab-10-10-10-13-13-10-10--8--7-7-7--8--8-10-10
Eb-------------------------------------------

Eb----------------
Bb----------------
Gb----------------
Db-4-4-4-4-4-4-4-3
Ab-4-4-4-4-4-4-4-3
Eb-2-2-2-2-2-2-2-1

=================================================

Inbetween chorus & Verse:
Eb------
Bb------
Gb------
Db-2-3-5
Ab-2-3-5
Eb-0-1-3

=================================================

Verse 1:
Repeat this numerous times
For the first two parts of this verse
Eb----
Bb----
Gb----
Db-5-5
Ab-5-5
Eb-3-3

Play this for the last part of the verse
Right before the chorus
Repeat numerous times
Eb----
Bb----
Gb----
Db-3-3
Ab-3-3
Eb-1-1

=================================================

Second verse:
Repeat numerous times for the first part
of the verse.
Eb----
Bb----
Gb----
Db-5-5
Ab-5-5
Eb-3-3

Play this for the second part:
Repeat numerous times.
Eb----------
Bb----------
Gb----------
Db-3-3-3-8-6
Ab-3-3-3-8-6
Eb-1-1-1-6-4

=================================================
Chorus:
Guitar 1 : Plays intro riff

Guitar 2:
"I have no time for your lies..."
Eb------------------------------------------------
Bb------------------------------------------------
Gb-------------------------------------5-5-5-5-5-5
Db-5-5-5-5-5-5-8-8-8-8-8-8-3-3-3-3-3-3-5-5-5-5-5-5
Ab-5-5-5-5-5-5-8-8-8-8-8-8-3-3-3-3-3-3-3-3-3-3-3-3
Eb-3-3-3-3-3-3-6-6-6-6-6-6-1-1-1-1-1-1------------

"I taste devine..."
Eb------------------------
Bb------------------------
Gb------------------------
Db-4-4-4-4-4-4-4-3-3-3-3-3
Ab-4-4-4-4-4-4-4-3-3-3-3-3
Eb-2-2-2-2-2-2-2-1-1-1-1-1

=================================================

"Melt in the fire..."
Eb--------------------------------
Bb--------------------------------
Gb--------------------------------
Db-4-4-4-4-4-4-4-4-3-3-3-3-3-3-3-3
Ab-4-4-4-4-4-4-4-4-3-3-3-3-3-3-3-3
Eb-2-2-2-2-2-2-2-2-1-1-1-1-1-1-1-1

End part:
Eb--------------------------------------
Bb--------------------------------------
Gb--------------------------------------
Db-8-6-3-3-3-3--8-6-3-3-3-3--8-6-3-3-3-3
Ab-8-6-3-3-3-3--8-6-3-3-3-3--8-6-3-3-3-3
Eb-6-4-1-1-1-1--6-4-1-1-1-1--6-4-1-1-1-1=



---------------------------
This file passed through:
       Absolute Tabs
   http://www.tabs.co.za
---------------------------