Guitar tablature for Another universe by Arno Carstens
#----------------------------------PLEASE NOTE---------------------------------#
#This file is the author's own work and represents their interpretation of the #
#song. You may only use this file for private study, scholarship, or research. #
#------------------------------------------------------------------------------##

     SONG: Another Universe
   ARTIST: Arno Carstens
    ALBUM:
  WEBSITE: www.arnocarstens.com

     TYPE: Guitar Tablature
TABBED BY: Gerrie van Eeden
    EMAIL: gj_777@yahoo.com
COMMENTS: One of those songs that makes you listen again and again and again!
           If you listen closely you will hear some effects in the backgroud, I suppose
           I could tab it out for you, but what would be the use of that?
    3 guitars is used that I can hear, but i think Albert Frost probably just records
    some of the riffs and fills beforehand and plays it that way(patches)
    I wanted to write out the effects (Chorus, Overdrive, etc...) but I'm lazy.
    Happy playing!


INTRO              VERSE(GUITAR 1..EACH TIME A CHORD
IS WRITTEN STRUM
                         IT A COUPLE OF TIMES, LISTEN TO THE SONG)  
e|---3--3--3--0---|---3---0---0---2--2--3--2--0--2---|
b|---3--3--3--3---|---3---3---3---1--1--1--1--1--1---|
g|---0--0--------.|---0---0---0---2--2--2--2--2--2--.|
d|---0--0--------.|---0---2---2---0--0--0--0--0--0--.|
a|---2--2---------|---2---2---3----------------------|
e|---3--3---------|---3---0--------------------------|

     G                G   Em  C   D7  
 Let's take the final bow,
 Let's make the silent sign,
 Nobody needs to know,
 Where we're off to

 We're invisible alive 
 We're the whispers in the scream
 We're not living in the West
 And we're not coming from the East


BRIDGE
GUITAR 1 CLEAN
GUITAR 2 WITH DISTORTION, STRUM EACH CHORD ONCE AND PICK THE LOWER(e-b-g)STRINGS IN BETWEEN
       GUITAR 1 PLAYS A NORMAL C-CHORD
        *
e|--3---5---0---0---2--2--3--2--0--2-|
b|--3---5---1---1---1--1--1--1--1--1-|
g|--0---5---2---0---2--2--2--2--2--2-|
d|--0---5---2---2---0--0--0--0--0--0-|
a|--2---3---0---3--------------------|
e|--3--------------------------------|
 Sharp is the knife,
 And Alive is the night 
 I'm gonna slit the throat of the Holy Ghost
 Ceremony to the UFO
 And SMS 'em where we wanna go
 Oooh



CHORUS
GUITAR 1 (REPEAT AS NEEDED)
e|--0--3--|
b|--1--3--|
g|--0--0--|
d|--2--0--|
a|--3--2--|
e|-----3--|

GUITAR 2 CHORUS RIFF (REPEAT OVER AND OVER)
e|--15-15-15-15-15-15-15-15-14-14-14-14-14-14-14-14--|
b|---------------------------------------------------|


 From the galaxy of blues
 To a universe we choose
 No more crying and just maybe 
 Somebody to hold
 From the galaxy of blues
 To a universe we choose
 No more crying and just maybe 
 Somebody to hold




SOLO
GUITAR 1 (SAME CHORDS AS CHORUS I.E. C AND G
ALTERNATELY)
GUITAR 3
                             *                        
   
e|------------------------------------------------|
b|--------15----15----15-----15--13--12-----------|
g|----12-----12----12----12-------------14--12----|   REPEAT LIKE THIS 3 TIMES THEN....AT THE
d|------------------------------------------------| * EACH TIME CHANGE THE NOTE, PLAY AROUND WITH THE
a|------------------------------------------------|   NATURAL NOTES OF THE E-MINOR PENTATONIC SCALE
e|------------------------------------------------|
(e|---12---15---|)




GUITAR 2
VERSE 2 FILL a
e|-------------------------------|
b|-----------12--13--12------12--|
g|---12--14--------------14------|
d|-------------------------------|

Let's play the metal music slow
Leave the car on the highway and go
Nobody needs to know
Another universe (START FILLa HERE) 

                                 
Make a distance between us and then
Lonely, lonely never us again
A galaxy to explore
Don't want return to a world at war


 From the galaxy of blues
 To a universe we choose
 No more crying and just maybe 
 Somebody to hold
 From the galaxy of blues
 To a universe we choose
 No more crying and just maybe 
 Somebody to hold


As always, this is my version of the song, and if you have any comments or death threats or job offers email me!
Keep on rocking!

---------------------------
This file passed through:
       Absolute Tabs
   http://www.tabs.co.za
---------------------------