Guitar tablature for My Engel by Melktert Kommissie (tabbed by GuitarGuy)
#----------------------------------PLEASE NOTE---------------------------------#
#This file is the author's own work and represents their interpretation of the #
#song. You may only use this file for private study, scholarship, or research. #
#------------------------------------------------------------------------------##

Kunstenaar: Die Melktert Kommissie

Album: Wonderwoorde

Jaar: 2006

"Tuning":  EADGBe


Die Melktert Kommissie - My Engel


              Bm        G        D         A

e ------------2----------3---------2---------0-----
B-------------3----------3---------3---------2-----
G-------------4----------0---------2---------2-----
D-------------4----------0---------0---------2-----
A------------------------2---------x---------0-----
E------------------------3---------x---------x-----


Hierdie is net vir die deel wat die Akoestiese Kitaar in die Liedjie speel.

Geniet

---------------------------
This file passed through:
       Absolute Tabs
   http://www.tabs.co.za
---------------------------