Bass tablature for White lines by Wonderboom
#----------------------------------PLEASE NOTE---------------------------------#
#This file is the author's own work and represents their interpretation of the #
#song. You may only use this file for private study, scholarship, or research. #
#------------------------------------------------------------------------------##

     SONG: White Lines
   ARTIST: Wonderboom
    ALBUM: Tell Someone Who Cares
  WEBSITE: www.wonderboom.co.za

     TYPE: Bass Tablature
TABBED BY: Nik Felbab
    EMAIL: rolling_monkey@hotmail.com
COMMENTS: Very cool song. I've tabbed it out down to every last detail. Enjoy!


PRE-VERSE x1
G|-----|
D|-----| This is just before the verse begins
A|-----| (at about 10 seconds into the song)
E|-1/3-|

VERSE x2
G|--------------|--------------|--------------|--------------| ~ = Let ring
D|---5~---------|---5~---------|---5~---------|---5~---------|
A|------1-2-3---|------1-2-3---|------1-2-3---|------3-2-1---| Note the variation
E|-3----------3-|-3----------3-|-3----------3-|-3----------3-| on the last time

INTERLUDE No.1 (When Cito sings "Chattin' up my girly")
G|--------|
D|-----5~-|
A|--------| Play this 4 times
E|-3~-----|

VERSE x2

PRE-CHORUS
G|---------|---------|---------|------|------|------|
D|---------|---------|---------|------|------|------| i.e. The speed increases
A|---------|---------|---------|------|------|------|    for the last 3 "sets"
E|-3-3-3-3-|-3-3-3-3-|-3-3-3-3-|-3333-|-3333-|-3333-|

CHORUS x4
G|---------------|
D|---------------|
A|-------1-2-3---|
E|-3-3-3-------3-|

Rest for a while, then enter with:
G|-----|-----|
D|-----|-----|
A|-----|-----|
E|-1/3-|-1/3-|

VERSE x2

INTERLUDE No.2 (When Cito sings "Me, a name that I call myself")
G|-----|
D|-----|
A|-----| Play this 4 times
E|-1/3-|

PRE-CHORUS x1
CHORUS x8

BRIDGE
G|-------------|-------------|-------------|-----|-----------------------------|
D|--5~---------|--5~---------|--5~---------|--5~-|-3-4h5~-5-3--------3---------|
A|-----1-2-3---|-----1-2-3---|-----1-2-3---|-----|5-----------5-3h4---5-3-5-3--|
E|3----------3-|3----------3-|3----------3-|3----|-----------------3---------3-|

CHORUS x2
VERSE x2 (Replace last "bar" with OUTRO)

OUTRO
G|------|------|------|---------------|
D|-5555-|-5555-|-5555-|-3---3---5-----|
A|------|------|------|---3---3---3---|
E|------|------|------|-------------3-|

---------------------------
This file passed through:
       Absolute Tabs
   http://www.tabs.co.za
---------------------------