Guitar tablature for Vrye Gees by middelklAs (tabbed by G3752)
#----------------------------------PLEASE NOTE---------------------------------#
#This file is the author's own work and represents their interpretation of the #
#song. You may only use this file for private study, scholarship, or research. #
#------------------------------------------------------------------------------##

     E      C     G       D
E|-------------------------------|
B|-------------------------------|
G|---9------5-----12-------------|
D|---9------5-----12------12-----|
A|---7------3-----10------12-----|
D|------------------------10-----|

Intro:
E-C-G-D X1

Verse:1
E-C-G-D X2

Chorus:
E-C-G-D X3

Bridge:(sonder distortion)
E-C-G-D X2

Verse:2
E-C-G-D X2

Chorus:
E-C-G-D X3

Bridge:(sonder distortion)
E-C-G-D X2

Dit klink beter in power chords...
En julle sal maar self die strumming patern moet uitwerk...

Die chords herhaal die heeltyd. Ek dink dis reg dit is my eerste "Official" (verskoon spelling) tab so ja...

---------------------------
This file passed through:
       Absolute Tabs
   http://www.tabs.co.za
---------------------------