Guitar tablature for My vissermanvriend se pa by Robbie Wessels
#----------------------------------PLEASE NOTE---------------------------------#
#This file is the author's own work and represents their interpretation of the #
#song. You may only use this file for private study, scholarship, or research. #
#------------------------------------------------------------------------------##

Song: My vissermanvriend se pa
Kunstenaar: Robbie Wessels
Album: My vissermanvriend se pa
Getab deur Frostie

My Vissermanvriend se pa - Robbie Wessels

Intro: X2

           C        Tap     Tap  Tap
e------------------------------------
B------------1----0-----0h1----1-----
-------------------------------------
D-------2----------------------------
A--3---------3----3-----3------3-----
E------------------------------------

C Stukkie:
          C         Tap    Tap    Tap
e--------------------------------------
B-----------1-----0----0h1-----1-------
G--------------------------------------
D------2-------------------------------
A--3--------3-----3----3-------3-------
E--------------------------------------

Am Stukkie:
        Am        Tap     Tap   Tap
e--------------------------------------
B----------1----0-----0h1----1---------
G--------------------------------------
D------2-------------------------------
A--0-------0----0-----0------0---------
E--------------------------------------

F Stukkie:

e---------1----------------------------
B-------1------------------------------
G-----2--------------------------------
D--------------------------------------
A--------------------------------------
E--1-----------------------------------

G Stukkie:

e-------------------3------------------
B--3---3---3---------------------------
G--0---0---0----0----------------------
D--------------------------------------
A--------------------------------------
E--3---3---3---------------------------

Vers 1:
C
Ek sing 'n liedjie sonder fancy woorde
                                    Am
Oor 'n oom wat ek nooit ooit sal vergeet nie
        C
Hierdie woorde maak 'n prentjie
                                       Am
Van 'n oom wat van sleg dinge niks wou weet nie
   C                                 F
En as ek aan hom dink, dan word ek stil
         C               G                  C
En ek verlang weer na my vissermanvriend se pa

Koor: (Strum)

C
As die son sak en die wind gaan le^
       F                      C
En die bote kies koers na die waters
                         F                  C
Dan dink ek terug aan my vissermanvriend se pa

Met sy vellies en sy kniebroek maak hy grappies
                                   F
En die waarhede op die punt van sy tong
          C             F          C
Laat my besef hy was 'n pa vir ons almal

C
Elke diertjie, elke voeltjie het 'n doel in sy bestaan
                      Am
Dis ook vir 'n slegte vrou
C
Dis die laaste woorde
                                          Am
Van 'n oom wat nooit wou afbreek maar wou bou
   C                                 F
En as ek aan hom dink, dan word ek stil
         C               G                  C
En ek verlang weer na my vissermanvriend se pa

~~~~~~~~~~~~~~~~~~~~~~~~~~~~~~~~~~~~~~~~~~~~~~~~~~~~~~~~~~~~~~~~~~~~~~~~~~~~~~~~~~~~~~~~~~~~~~~~~~~~~~~~~~~~~~~~~~
Volg net die chords en speel die song soos hierbo getab. Pas maar al die stukkies in soos 'n legkaart. Die song
klink redelik reg, so geniet hom. E-mail my gerus by werner@matlabas.co.za


---------------------------
This file passed through:
       Absolute Tabs
   http://www.tabs.co.za
---------------------------