Guitar tablature for Schizoid by Lithium
#----------------------------------PLEASE NOTE---------------------------------#
#This file is the author's own work and represents their interpretation of the #
#song. You may only use this file for private study, scholarship, or research. #
#------------------------------------------------------------------------------##

Lithium - Schizoid
Album : Broken
Tabbed by : Shaun Pretorius

INTRO:
E--------------------------------------
B--------------------------------------
G----------4-4-4-4--5-5-5-5-----------7
D-2-2-2-2--4-4-4-4--5-5-5-5--7-7-7-7--7
A-2-2-2-2--2-2-2-2--3-3-3-3--7-7-7-7--5
E-0-0-0-0--------------------5-5-5-5---

..then
E---------------------
B---------------------
G----------4-4-4-4--5b
D-2-2-2-2--4-4-4-4--5b
A-2-2-2-2--2-2-2-2--3b
E-0-0-0-0-------------

E---------------------
B---------------------
G----------4-4-4-4----
D-2-2-2-2--4-4-4-4--5b
A-2-2-2-2--2-2-2-2--5b
E-0-0-0-0-----------3b

Verse riff:
(played with effects)
E-------------------
B-------------------
G-------------------
D-2-2--5-5--7-7--5-5
A-2-2--5-5--7-7--5-5
E-0-0--3-3--5-5--3-3

Chorus:
E------------------------|---------------|
B------------------------|---------------|
G------------------------|---------------|
D-2-2--xxx--5-5-xxx--7-7-|---------------|
A-2-2--xxx--5-5-xxx--7-7-|-----5h7p5-----|
E-0-0--xxx--3-3-xxx--5-5-|-5h7-------7-5-|

then this...
E------------------------|-------------|
B------------------------|-------------|
G------------------------|-------------|
D-2-2--xxx--5-5-xxx--7-7-|-------------|
A-2-2--xxx--5-5-xxx--7-7-|-7p5-7p5-----|
E-0-0--xxx--3-3-xxx--5-5-|----------7b-|

then this...
E------------------------|------------|
B------------------------|------------|
G------------------------|------------|
D-2-2--xxx--5-5-xxx--7-7-|---------5b-|
A-2-2--xxx--5-5-xxx--7-7-|-----5h7----|
E-0-0--xxx--3-3-xxx--5-5-|-5h7--------|

then this...
E----------------------------
B----------------------------
G----------------------------
D-2-2-xxx-5-5-xxx-7-7-xxx-5-5
A-2-2-xxx-5-5-xxx-7-7-xxx-5-5
E-0-0-xxx-3-3-xxx-5-5-xxx-3-3


THEN E to G to Bb to A=



---------------------------
This file passed through:
       Absolute Tabs
   http://www.tabs.co.za
---------------------------