Guitar tablature for Vergeet en Vergewe by Nicholis Louw (tabbed by kunuk)
#----------------------------------PLEASE NOTE---------------------------------#
#This file is the author's own work and represents their interpretation of the #
#song. You may only use this file for private study, scholarship, or research. #
#------------------------------------------------------------------------------##

Vergeet en Vergewe - Nicholis Louw
Album:  Vergeet en Vergewe



This song is more of an intermediate-advanced piece. It contains a key
change during the chorus sections, and most of the chords are easier
to play as bar-chords. There are also a number of finger-picking
options along with the piano, and the guitar solo near the end.

Here are the chords used in the song for quick reference:
        Am     A#     C     C-bar   D#     F      G     G-bar                  
e:------0------6------0------3------6------1------3------3------
B:------1------6------1------5------8------1------3------3------
G:------2------7------0------5------8------2------0------4------
D:------2------8------2------5------8------3------0------5------
A:------0------8------3------3------6------3------2------5------
E:------0------6---------------------------1------3------3------

Have fun! Please let me know if there any changes/suggestions you have
to make the tab better,
Your Friendly Neighbourhood Kunuk – kunuk@rocketmail.com

======================================================================

INTRO: (X2)
e:-----------------------------|-----------------------------|
B:-----------------------------|-------------------1---------|
G:-0---0-2-3-0-------0---------|-0---0-2-3-0-----3-----------|
D:---0---------3---3---1---1-3-|---0---------3-3-----1-1-3-4-|
A:---------------3-------1-----|-----------------------------|
E:-----------------------------|-----------------------------|

e:-----------------------------|-----------------------------|
B:-----------------------------|-------------------1---------|
G:-0---0-2-3-0-------0---------|-0---0-2-3-0-----3-----------|
D:---0---------3---3---1---1-3-|---0---------3-3-----1-1-3-4-|
A:---------------3-------1-----|-----------------------------|
E:-----------------------------|-----------------------------|


VERS:
-The intro repeats over the first verse, the following chords may be
used as an option

G             F       C
Weggestoot verneuk verniel
G                F           Am
Duisend trane verloor nog 'n siel
G             F         C
In die donker agter die deur
G               Am        F              
Hoekom maak ons mekaar so seer
G             F         C
Goddeloos hoogmoed en moord
G        F             Am
Jaloesie vertroue oorboord
G                    F           C
Die kinders huil sal ons eendag leer
G               Am        F              
Hoekom maak ons mekaar so seer


KOOR:
-This pattern repeats through the chorus sections, if you would
prefer, you can play the chords below
e:-------------------------|--------------------------|
B:-------------------------|--------------------------|
G:---8-7------------7-8-5--|----8-7------------7-8-5--|
D:-5-----8-10--------------|--5-----8-10--------------|
A:----------------8--------|-----------------8--------|
E:-------------------------|--------------------------|

              D#    A#
Vergeet en vergewe
              D#      F
Vergewe my sonde weer
             D#    A#
Staan by die wete
                D#      F
Dis wat die liefde leer
               D#   A#
Vergeet en vergewe
                D#     F
Vergewe die laaste keer
             D#
Begin by die einde
           D#
Tussen die lyne
D#                  F    G
Vergewe al maak dit seer


VERS:
G             F          C
Mishandel vervloek en verward
G                F            Am
Nog 'n leuen die tong is 'n swaard
        G     F           C
Vat die woord kom ons probeer
G             Am            F              
Waarvoor maak ons mekaar so seer


KOOR:
--This pattern repeats through the chorus sections
e:-------------------------|--------------------------|
B:-------------------------|--------------------------|
G:---8-7------------7-8-5--|----8-7------------7-8-5--|
D:-5-----8-10--------------|--5-----8-10--------------|
A:----------------8--------|-----------------8--------|
E:-------------------------|--------------------------|


              D#    A#
Vergeet en vergewe
              D#      F
Vergewe my sonde weer
             D#    A#
Staan by die wete
                D#      F
Dis wat die liefde leer
               D#   A#
Vergeet en vergewe
                D#     F
Vergewe die laaste keer
             D#
Begin by die einde
           D#
Tussen die lyne
D#                  F    G
Vergewe al maak dit seer


Vergeet en vergewe... Vergeet en vergewe...   Vergeet en vergewe...


GUITAR SOLO:
e:------------------------------------------------------------|
B:------------------------------------------------------------|
G:---8-7------------7-8-5-------8-7-----------7-8-5-----3-2---|
D:-5-----8-10-----------------5-----8-10----------------------|
A:----------------8-------------------------8-----------------|
E:------------------------------------------------------------|


PIANO OUTRO:
e:-----------------------------|------------------------------|
B:-----------------------------|-------------------1----------|
G:-0---0-2-3-0-------0---------|-0---0-2-3-0-----3------------|
D:---0---------3---3---1---1-3-|---0---------3-3-----1-1-3-4--|
A:---------------3-------1-----|------------------------------|
E:-----------------------------|------------------------------|

e:-----------------------------|----------------------------3-||
B:-----------------------------|-------------------1--------3-||
G:-0---0-2-3-0-------0---------|-0---0-2-3-0-----3----------4-||
D:---0---------3---3---1---1-3-|---0---------3-3-----1-1-3--5-||
A:---------------3-------1-----|----------------------------5-||
E:-----------------------------|----------------------------3-||


======================================================================
Here is an English translation for all of those people out there like
myself, who dig the music, but are new to the language:
======================================================================

VERSE:
Push away cheat ruin
One thousand tears lost another soul
In the dark behind the door
Why must we hurt each other so

Reprobate high spirits and murder
Envying confidence overboard
The children cry will we someday learn
Why must we hurt each other so

CHORUS:
Forget and forgiven
Forgiven my sin all over again
Stand at the knowledge
It’s what the affection learn
Forget and forgiven
Forgiven the last times
Beginning at the end
Between the lines
Forgiven all make it painful

VERSE:
Abuse cursed and confused
Another lie the tongue is a sword
We try to capture the coming words
For which we make each other hurt so

CHORUS:
Forget and forgiven
Forgiven my sin all over again
Stand at the knowledge
It’s what the affection learn
Forget and forgiven
Forgiven the last times
Beginning at the end
Between the lines
Forgiven all make it painful

OUTRO:
Forget and forgiven, forget and forgiven, forget and forgiven...

======================================================================

---------------------------
This file passed through:
       Absolute Tabs
   http://www.tabs.co.za
---------------------------