Bass tablature for Broken by Aleda
#----------------------------------PLEASE NOTE---------------------------------#
#This file is the author's own work and represents their interpretation of the #
#song. You may only use this file for private study, scholarship, or research. #
#------------------------------------------------------------------------------##

      Aleda - Broken
      ==============
 
This Tabs was submitted by the Aleda Bassist and has been tabed according to
the New Version (2003) of the song broken.

Visit http://www.aledaband.com for Gig guides, Pics, Bio and much more!!!

Enjoy and BUST OUT!


Bass Tabs (New Version) - Shaun Dutton
                                                                                                       
G||------------------|-------------------|-------------------------------||---------------------------|
D||------------------|-------------------|-------------------------------||*--------------------------|
A||------------------|--4----------------|--16----16----16-14------------||---4--4--4--4--4--4--4--4--|
E||------------------|-------------------|--------------------16-14/-9---||*--------------------------|
B||------------------|-------------------|-------------------------------||---------------------------|


                                                                                                            
--------------------------|--------------------------|---------------------------||------------------------|
--------------------------|--------------------------|--------------------------*||------------------------|
--7--7--7--7--7--7--7--7--|--------------------------|---------------------------||--4--4----4--4----4--4--|
--------------------------|--5--5--5--5--5--5--5--5--|--7--7--7--7--7--5--7--5--*||------------------------|
--------------------------|--------------------------|---------------------------||------------------------|


                                                                                                     
------------------------|------------------------|-------------------------|------------------------|
------------------------|------------------------|-------------------------|------------------------|
--7--7----7--7----7--7--|------------------------|----------------9--7--5--|--4--4----4--4----4--4--|
------------------------|--5--5----5--5----5--5--|--7--7----7--7-----------|------------------------|
------------------------|------------------------|-------------------------|------------------------|


                                                                                                       
------------------------|------------------------|-------------------------|--------------------------|
------------------------|------------------------|-------------------9-----|--------------------------|
--7--7----7--7----7--7--|------------------------|----------------9-----9--|--4--4--4--4--4--4--4--4--|
------------------------|--5--5----5--5----5--5--|--7--7----7--7-----------|--------------------------|
------------------------|------------------------|-------------------------|--------------------------|


                                                                                                            
--------------------------|--------------------------|--------------------------|--------------------------|
--------------------------|--------------------------|--------------------------|--------------------------|
--4--4--4--4--4--4--4--4--|--------------------------|--------------------------|--4--4--4--4--4--4--4--4--|
--------------------------|--5--5--5--5--5--5--5--5--|--7--7--7--7--7--5--7--5--|--------------------------|
--------------------------|--------------------------|--------------------------|--------------------------|


                                                                                                              
--------------------------|--------------------------|--------------------------||---------------------------|
--------------------------|--------------------------|--------------------------||*--------------------------|
--4--4--4--4--4--4--4--4--|--------------------------|--------------------------||---------------------------|
--------------------------|--5--5--5--5--5--5--5--5--|--7--7--7--7--7--5--3--1--||*--0--0--0--0--0--0--0--4--|
--------------------------|--------------------------|--------------------------||---------------------------|


                                                                                                            
--------------------------|--------------------------|--------------------------|--------------------------|
--------------------------|--------------------------|--------------------------|--------------------------|
--------------------------|--4--4--4--4--4--4--4--2--|--4--4--4--4--4--4--4--2--|--0--0--0--0--0--0--0--0--|
--0--0--0--0--0--0--0--4--|--------------------------|--------------------------|--------------------------|
--------------------------|--------------------------|--------------------------|--------------------------|


                                                                                         
--------------------------|--------------------------|---------------------------||----||
--------------------------|--------------------------|--------------------------*||----||
--0--0--0--0--0--0--0--0--|--2--2--2--2--2--0--2--0--|--2--2--2--2--2--0--2--0---||----||
--------------------------|--------------------------|--------------------------*||----||
--------------------------|--------------------------|---------------------------||----||



---------------------------
This file passed through:
       Absolute Tabs
   http://www.tabs.co.za
---------------------------