Guitar tablature for Liewe Ouers by Robbie Wessels (tabbed by kunuk)
#----------------------------------PLEASE NOTE---------------------------------#
#This file is the author's own work and represents their interpretation of the #
#song. You may only use this file for private study, scholarship, or research. #
#------------------------------------------------------------------------------##

Liewe Ouers - Robbie Wessels
Album: Afrika Sonsak



Excellent song for a beginner looking for just a little challenge.
Just three chords to learn, including the B chord for a twist.
Wondering if spinning tongs, while singing for the camera, and wearing
nothing but a pair of speedos is an occupational hazard...how many
outtakes were there?

The only thing missing is the lyrics. If you have the lyrics, could
you please send me an email so I can update the tab? Thanks in advance.

Here are the chords used in the song for quick reference:
        A       B       E                   
e:------0-------2-------0-------
B:------2-------4-------0-------
G:------2-------4-------1-------
D:------2-------4-------2-------
A:------0-------2-------2-------
E:----------------------0-------

Have fun! Please let me know if there any changes/suggestions you have
to make the tab better,
Your Friendly Neighbourhood Kunuk – kunuk@rocketmail.com

======================================================================

INTRO:
E.....A.....B.....E.....
E.....A.....B.....E.....


VERS1:
E.....A.....B.....E.....
E.....A.....B.....E.....
E.....A.....B.....E.....
E.....A.....B.....E.....

E............A..........
B............A.....E....
E.....A.....B.....E.....
E.....A.....B.....E.....


KOOR:
E.....A.....B.....E.....
E.....A.....B.....E.....


CHECKLIST:
E.....A.....B.....E.....
E.....A.....B.....E.....


KOOR:
E.....A.....B.....E.....
E.....A.....B.....E.....


BRUG:
-Let each of the first four chords really ring through. Then you have
the option of playing the A-chord repeatedly, or pushing yourself a
bit for the driving guitar line

B.....E.....A.....E.....
B.....E.....A.....E.....

   A                                A
e:-------------------------------------------------------------------|
B:-------------------------------------------------------------------|
G:-------------------------------------------------------------------|
D:-------------------------------------------------------------------|
A:-7-7-9-9-10-10-9-9-7-7------------7-7-9-9-10-10-9-9-7-7------------|
E:----------------------9-9-5-5-9-9----------------------9-9-5-5-9-9-|

   A                                    B            A            E
e:-------------------------------------------------------------------|
B:-------------------------------------------------------------------|
G:-------------------------------------------------------------------|
D:-------------------------------------------------------------------|
A:-7-7-9-9-10-10-9-9-7-7------------7-7-9-9-9-9-9-9-7-7-7-7-7-7---7--|
E:----------------------9-9-5-5-9-9-----------------------------9----|


VERS2:
E.....A.....B.....E.....
E.....A.....B.....E.....
E.....A.....B.....E.....
E.....A.....B.....E.....

E............A..........
B............A.....E....
E.....A.....B.....E.....
E.....A.....B.....E.....


KOOR:
E.....A.....B.....E.....
E.....A.....B.....E.....


CHECKLIST:
E.....A.....B.....E.....
E.....A.....B.....E.....


KOOR:
E.....A.....B.....E.....
E.....A.....B.....E.....


BRUG:
-Let each of the first four chords really ring through. Then you have
the option of playing the A-chord repeatedly, or pushing yourself a
bit for the driving guitar line

B.....E.....A.....E.....
B.....E.....A.....E.....

   A                                 A
e:-------------------------------------------------------------------|
B:-------------------------------------------------------------------|
G:-------------------------------------------------------------------|
D:-------------------------------------------------------------------|
A:-7-7-9-9-10-10-9-9-7-7------------7-7-9-9-10-10-9-9-7-7------------|
E:----------------------9-9-5-5-9-9----------------------9-9-5-5-9-9-|

   A                                    B          A              E
e:-------------------------------------------------------------------|
B:-------------------------------------------------------------------|
G:-------------------------------------------------------------------|
D:-------------------------------------------------------------------|
A:-7-7-9-9-10-10-9-9-7-7------------7-7-9-9-9-9-9-9-7-7-7-7-7-7---7--|
E:----------------------9-9-5-5-9-9-----------------------------9----|
                                 Liewe ouers, liewe ouers, liewe ouers

======================================================================

---------------------------
This file passed through:
       Absolute Tabs
   http://www.tabs.co.za
---------------------------