Guitar tablature for Piekniek op die Maan by Zinkplaat (tabbed by Ruan)
#----------------------------------PLEASE NOTE---------------------------------#
#This file is the author's own work and represents their interpretation of the #
#song. You may only use this file for private study, scholarship, or research. #
#------------------------------------------------------------------------------##

ZinkPlaat - Piekniek Op die Maan

Volledige tab sal nog volg.
Luister maar net die song vir die ritme.

 
__________________________________________
(Acoustic Guitar 1)
e|----4-5----2--2-2p0--|-0-7-7-5-4-4h5-0--
B|---------------------|------------------
G|---------------------|------------------
D|---------------------|------------------
A|--------------------0|--0-0-0-0-0---0---}Bass Guitar
E|-0---0--0---0--0-----|------------------}Bass Guitar
__________________________________________

e|----4-5----2--2-2p0--|-0-7-7-9-9-9p0/2p0
B|---------------------|------------------
G|---------------------|------------------
D|---------------------|------------------
A|--------------------0|--0-0-0-0-0---0---}Bass Guitar
E|-0---0--0---0--0-----|------------------}Bass Guitar
__________________________________________

e|---2p0----4p0----2p0----4p0----2p0------
B|----------------------------------------
G|----------------------------------------
D|----------------------------------------
A|----------------------------------------
E|0------0------0------0------0-----------}Bass Guitar
_______________________________________________________________

e|----0-7-7-5-4-4h5-0--|---2p0----4p0----2p0----4p0----2p0-----
B|---------------------|---------------------------------------
G|---------------------|---------------------------------------
D|---------------------|---------------------------------------
A|-0---0-0-0-0-0---0---|---------------------------------------}Bass Guitar
E|---------------------|-0------0------0------0------0---------}Bass Guitar
_______________________________________________________________

e|----7-7-5-12----------------------------
B|----------------------------------------
G|----------------------------------------
D|----------------------------------------
A|-0--------------------------------------}Bass Guitar
E|----------------------------------------
__________________________________________

e|----4-5----2--2-2p0--|-0-7-7-5-4-4h5-0--
B|---------------------|------------------
G|---------------------|------------------  X2
D|---------------------|------------------
A|--------------------0|--0-0-0-0-0---0---}Bass Guitar
E|-0---0--0---0--0-----|------------------}Bass Guitar
__________________________________________

(Acoustic Guitar 2)Strumming (1ste Tipe)
e-0----0----0----0-|
B-0----0----0----0-|
G-1----0----1----0-|
D-2----7----2----7-|
A-2----7----2----7-|
E-0----5----0----5-|
____________________

(Acoustic Guitar 2)Strumming (2de Tipe)
e-0----0----0----0-|
B-0----0----0----0-|
G-0----1----0----1-|
D-7----2----7----2-|
A-7----2----7----2-|
E-5----0----5----0-|
____________________

Ek gooi n klippie teen jou ruit.
En kyk hoe jy deur jou gordyne loer.
En ek het klaar besluit, en ek gaan jou ontvoer.
En as jy wonder, waar heen ons gaan.

Vanaand skiet ek jou - Vir n Piekniek op die maan.
n Wolk is ons kombersie.
Ons Piekniek op die maan...
Die aandster is ons kersie.
Ons hou Piekniek op die maan.

Ek sien hoe jy besluit, terwyl jy maak asof jy leer.
En die onsekerheid, vandaans alles wat jou keer.
Maar ek weet jy het, klaar jou pajamas aan.
Maar vanaand skiet ek jou - Vir n Piekniek op die maan.

n Wolk is ons kombersie.
Ons Piekniek op die maan...
Die aandster is ons kersie.
Ons hou Piekniek op die maan...

Jou asem maak wasem teen die glas.
En jy kyk na my spore in die dou op die gras.
So los net als, en los jou tas, En kom net saam...

n Wolk is ons kombersie....
Ons Piekniek op die maan....
En die aandster is ons kersie.
Ons hou Piekniek op die maan....
n Wolk is ons kombersie.
Ons hou Piekniek op die maan.

---------------------------
This file passed through:
       Absolute Tabs
   http://www.tabs.co.za
---------------------------