Guitar tablature for Jessica by Ray Dylan (tabbed by kunuk)
#----------------------------------PLEASE NOTE---------------------------------#
#This file is the author's own work and represents their interpretation of the #
#song. You may only use this file for private study, scholarship, or research. #
#------------------------------------------------------------------------------##

Jessica - Ray Dylan
Album:  Breek Die Ys



This is an intermediate tab, due to the nature of the chords in the
song. The artist makes exclusive use of suspended 4th notes making this
tab a bit of a challenge for your fingers. As usual, the solo has been
transcribed as have the counter melodies.

To switch between the C# and sus4, I recommend holding down the C#
chord with your third finger barred across the D-G-B strings, then
simply add your forth finger on the B string. To switch between the G#
and sus4, I recommend holding the sus4 with your third finger across
the A-D-G strings, while keeping your second and forth fingers on
their usual locations for the G#. This way you can unbar you finger
and move between the two chords.

Here are the chords used in the song for quick reference:
         C#    C#sus4    G#    G#sus4
e:-----------------------3-------3-------
B:-------6-------7-------3-------3-------
G:-------6-------6-------4-------5-------
D:-------6-------6-------5-------5-------
A:-------4-------4-------5-------5-------
E:-----------------------3-------3-------

Have fun! Please let me know if there any changes/suggestions you have
to make the tab better,
Your Friendly Neighbourhood Kunuk – kunuk@rocketmail.com

======================================================================

INTRO:
C#sus4...C#...C#sus4...C#...C#sus4...C#...C#sus4...C#...


VERS:
C#sus4      C#         C#sus4        C#
Jessie ek onthou toe ons nog kinders was
C#sus4       C#           C#sus4            C#
Daai sproete en daai dimpels wat so maklik lag
C#sus4       C#       C#sus4           C#       G#sus4  G#  G#sus4  G#
Drome gedroom in die lang gras by die vlei
G#sus4     G#    G#sus4     G#
Hoe ons eendag groot sou word
G#sus4     G#     G#sus4      G#       C#sus4  C#  C#sus4  C#
En altyd saam wees Jessie ek en jy


KOOR:
--The lyrics alternate with the counter melodies below. Listen to the
song and you should be able to follow along. The chords are written
above the bars in case you would rather play the chords

Jessica...

  C#    C#sus4          C#
e:--------------------|-----------------------|----------------------|
B:-6~~~-4~~~-7~~~-----|-6~~~~~~~~~~~~~~~~~~~~~|~~~~~~~~~~~~~~~~~-----|
G:--------------------|-----------------------|----------------------|
D:--------------------|-----------------------|----------------------|
A:--------------------|-----------------------|----------------------|
E:--------------------|-----------------------|----------------------|
  Jy kan maar glo Jessie baby
  Daar’s geen ander een
  Hierdie hart brand droomgedagtes net oor jou

  G#    G#sus4         G#            G#     G#sus4       G#
e:--------------------|-------------|------------------|-------------|
B:--------------------|-------------|------------------|-------------|
G:-5~~~-3~~~-6~~~-----|-5~~~~~~~~---|-5~~~-3~~~-6~~~---|-5~~~~~~~~---|
D:--------------------|-------------|------------------|-------------|
A:--------------------|-------------|------------------|-------------|
E:--------------------|-------------|------------------|-------------|
  Jessica...                     Jessica dit was net ons op die strand
                                 Toe die son sak ek onthou

  C#    C#sus4          C#
e:--------------------|-----------------------|
B:-6~~~-4~~~-7~~~-----|-6~~~~~~~~~~~~~~~~~----|
G:--------------------|-----------------------|
D:--------------------|-----------------------|
A:--------------------|-----------------------|
E:--------------------|-----------------------|
  Jessica...

  C#    C#sus4          C#
e:--------------------|-----------------------|----------------------|
B:-6~~~-4~~~-7~~~-----|-6~~~~~~~~~~~~~~~~~~~~~|~~~~~~~~~~~~~~~~~-----|
G:--------------------|-----------------------|----------------------|
D:--------------------|-----------------------|----------------------|
A:--------------------|-----------------------|----------------------|
E:--------------------|-----------------------|----------------------|
  Kom kyk Jessie baby kom kyk wat ek bedoel
  As ek sê ek is op my knieë net oor jou

  G#    G#sus4          G#            G#    G#sus4       G#
e:--------------------|-------------|------------------|-------------|
B:--------------------|-------------|------------------|-------------|
G:-5~~~-3~~~-6~~~-----|-5~~~~~~~~---|-5~~~-3~~~-6~~~---|-5~~~~~~~~---|
D:--------------------|-------------|------------------|-------------|
A:--------------------|-------------|------------------|-------------|
E:--------------------|-------------|------------------|-------------|
  Jessica...               en toe dit lig word was jy warm om my gevou

  C#    C#sus4          C#
e:--------------------|-----------------------|
B:-6~~~-4~~~-7~~~-----|-6~~~~~~~~~~~~~~~~~----|
G:--------------------|-----------------------|
D:--------------------|-----------------------|
A:--------------------|-----------------------|
E:--------------------|-----------------------|


VERS:
C#sus4     C#          C#sus4        C#
Jessie ek onthou nog daardie eerste soen
C#sus4     C#     C#sus4        C#
Jou oë se bruin agter die paviljoen
C#sus4    C#   C#sus4   C#        G#sus4  G#  G#sus4  G#
Die wind die son jou mond
G#sus4    G#    G#sus4     G#
Jy het gevra of ek van jou hou
G#sus4     G#       G#sus4         G#       C#sus4  C#  C#sus4  C#
Ek lief jou Jessie my baby ek sê dit nou


KOOR:
--The lyrics alternate with the counter melodies below. Listen to the
song and you should be able to follow along. The chords are written
above the bars in case you would rather play the chords

Jessica...

  C#    C#sus4          C#
e:--------------------|-----------------------|----------------------|
B:-6~~~-4~~~-7~~~-----|-6~~~~~~~~~~~~~~~~~~~~~|~~~~~~~~~~~~~~~~~-----|
G:--------------------|-----------------------|----------------------|
D:--------------------|-----------------------|----------------------|
A:--------------------|-----------------------|----------------------|
E:--------------------|-----------------------|----------------------|
  Jy kan maar glo Jessie baby
  Daar’s geen ander een
  Hierdie hart brand droomgedagtes net oor jou

  G#    G#sus4         G#            G#     G#sus4       G#
e:--------------------|-------------|------------------|-------------|
B:--------------------|-------------|------------------|-------------|
G:-5~~~-3~~~-6~~~-----|-5~~~~~~~~---|-5~~~-3~~~-6~~~---|-5~~~~~~~~---|
D:--------------------|-------------|------------------|-------------|
A:--------------------|-------------|------------------|-------------|
E:--------------------|-------------|------------------|-------------|
  Jessica...                     Jessica dit was net ons op die strand
                                 Toe die son sak ek onthou

  C#    C#sus4          C#
e:--------------------|-----------------------|
B:-6~~~-4~~~-7~~~-----|-6~~~~~~~~~~~~~~~~~----|
G:--------------------|-----------------------|
D:--------------------|-----------------------|
A:--------------------|-----------------------|
E:--------------------|-----------------------|
  Jessica...

  C#    C#sus4          C#
e:--------------------|-----------------------|----------------------|
B:-6~~~-4~~~-7~~~-----|-6~~~~~~~~~~~~~~~~~~~~~|~~~~~~~~~~~~~~~~~-----|
G:--------------------|-----------------------|----------------------|
D:--------------------|-----------------------|----------------------|
A:--------------------|-----------------------|----------------------|
E:--------------------|-----------------------|----------------------|
  Kom kyk Jessie baby kom kyk wat ek bedoel
  As ek sê ek is op my knieë net oor jou

  G#    G#sus4          G#            G#    G#sus4       G#
e:--------------------|-------------|------------------|-------------|
B:--------------------|-------------|------------------|-------------|
G:-5~~~-3~~~-6~~~-----|-5~~~~~~~~---|-5~~~-3~~~-6~~~---|-5~~~~~~~~---|
D:--------------------|-------------|------------------|-------------|
A:--------------------|-------------|------------------|-------------|
E:--------------------|-------------|------------------|-------------|
  Jessica...               en toe dit lig word was jy warm om my gevou

  C#    C#sus4          C#
e:--------------------|-----------------------|
B:-6~~~-4~~~-7~~~-----|-6~~~~~~~~~~~~~~~~~----|
G:--------------------|-----------------------|
D:--------------------|-----------------------|
A:--------------------|-----------------------|
E:--------------------|-----------------------|


TOETSBORD SOLO:
e:-----------------------|-----------6~~~~~~-----|
B:-8~~~-6~~~-9~~~~~------|-8-6---6-8-------------|
G:-----------------------|-----8-----------------|
D:-----------------------|-----------------------|
A:-----------------------|-----------------------|
E:-----------------------|-----------------------|

e:-----------------------|-----------------------|
B:-8------8------8-------|-8------8-9-8-6--------|
G:---8------8------8-----|---8------------8------|
D:-----8------8----------|-----8-----------------|
A:-----------------------|-----------------------|
E:-----------------------|-----------------------|

e:-----------------------|-----------------------|
B:-----------------------|-----------------------|
G:-7~~~-5~~~-8~~~~~------|-7~~~-5~~~-8~~~-7~~~---|
D:-----------------------|-----------------------|
A:-----------------------|-----------------------|
E:-----------------------|-----------------------|

e:-----------------------|-----------------------|
B:-6------6------6-------|-6------8-6------------|
G:---6------6------6-----|---6--------8-7-8~~~---|
D:-----6------6----------|-----------------------|
A:-----------------------|-----------------------|
E:-----------------------|-----------------------|


KOOR:
--The lyrics alternate with the counter melodies below. Listen to the
song and you should be able to follow along. The chords are written
above the bars in case you would rather play the chords

Jessica...

  C#    C#sus4          C#
e:--------------------|-----------------------|----------------------|
B:-6~~~-4~~~-7~~~-----|-6~~~~~~~~~~~~~~~~~~~~~|~~~~~~~~~~~~~~~~~-----|
G:--------------------|-----------------------|----------------------|
D:--------------------|-----------------------|----------------------|
A:--------------------|-----------------------|----------------------|
E:--------------------|-----------------------|----------------------|
  Jy kan maar glo Jessie baby
  Daar’s geen ander een
  Hierdie hart brand droomgedagtes net oor jou

  G#    G#sus4         G#            G#     G#sus4       G#
e:--------------------|-------------|------------------|-------------|
B:--------------------|-------------|------------------|-------------|
G:-5~~~-3~~~-6~~~-----|-5~~~~~~~~---|-5~~~-3~~~-6~~~---|-5~~~~~~~~---|
D:--------------------|-------------|------------------|-------------|
A:--------------------|-------------|------------------|-------------|
E:--------------------|-------------|------------------|-------------|
  Jessica...                     Jessica dit was net ons op die strand
                                 Toe die son sak ek onthou

  C#    C#sus4          C#
e:--------------------|-----------------------|
B:-6~~~-4~~~-7~~~-----|-6~~~~~~~~~~~~~~~~~----|
G:--------------------|-----------------------|
D:--------------------|-----------------------|
A:--------------------|-----------------------|
E:--------------------|-----------------------|
  Jessica...

  C#    C#sus4          C#
e:--------------------|-----------------------|----------------------|
B:-6~~~-4~~~-7~~~-----|-6~~~~~~~~~~~~~~~~~~~~~|~~~~~~~~~~~~~~~~~-----|
G:--------------------|-----------------------|----------------------|
D:--------------------|-----------------------|----------------------|
A:--------------------|-----------------------|----------------------|
E:--------------------|-----------------------|----------------------|
  Kom kyk Jessie baby kom kyk wat ek bedoel
  As ek sê ek is op my knieë net oor jou

  G#    G#sus4          G#            G#    G#sus4       G#
e:--------------------|-------------|------------------|-------------|
B:--------------------|-------------|------------------|-------------|
G:-5~~~-3~~~-6~~~-----|-5~~~~~~~~---|-5~~~-3~~~-6~~~---|-5~~~~~~~~---|
D:--------------------|-------------|------------------|-------------|
A:--------------------|-------------|------------------|-------------|
E:--------------------|-------------|------------------|-------------|
  Jessica...               en toe dit lig word was jy warm om my gevou

  C#    C#sus4          C#
e:--------------------|-----------------------|
B:-6~~~-4~~~-7~~~-----|-6~~~~~~~~~~~~~~~~~----|
G:--------------------|-----------------------|
D:--------------------|-----------------------|
A:--------------------|-----------------------|
E:--------------------|-----------------------|

======================================================================
Here is an English translation for all of those people out there like
myself, who dig the music, but are new to the language:
======================================================================

Jessie, I still remember when we were kids
Nonsense, dimples, freckles and easy laughs
Dreaming dreams in the long grass by the pond
About how we would be big one day
And always be together, me and you Jessie

CHORUS:
Jessica, you are the only one Jessie baby
There is no one else
My heart burns with dreams of you
Jessica it was just us on the beach
I remember when the sun set
Jessica Jessie baby come see come see what I mean
I'm on my knees for you
Jessica and please accept my warm feelings for you

Jessie, I still remember that first kiss
Your brown eyes behind the pavilion
The wind, the sun, your lips
You have asked whether I love you
Jessie I love you my baby, I say it now

CHORUS:
Jessica, you are the only one Jessie baby
There is no one else
My heart burns with dreams of you
Jessica it was just us on the beach
I remember when the sun set
Jessica Jessie baby come see come see what I mean
I'm on my knees for you
Jessica and please accept my warm feelings for you

======================================================================

---------------------------
This file passed through:
       Absolute Tabs
   http://www.tabs.co.za
---------------------------