Guitar tablature for Hurts so bad by Danny K
#----------------------------------PLEASE NOTE---------------------------------#
#This file is the author's own work and represents their interpretation of the #
#song. You may only use this file for private study, scholarship, or research. #
#------------------------------------------------------------------------------##

------------------------------------------------------------------------------
          Danny K - Hurts So Bad
------------------------------------------------------------------------------

Tabbed By:  Clayton Botha
E-Mail: theno69@hotmail.com

This song has got a latin guitar feel to it, not so hard but easy to get
lost
in the fast bits. Any questions, comments or corrections please e-mail me.

Intro:
======
e|-----2-4-5-4h5p4-2~~~-2h4--------------------------------------------------|
B|----x--------------------2~~~-2-2h3p2--------------------------------------|
G|---x----------------------------------4-2-1-2p1--------1-2-1h2p1-----------|
D|------------------------------------------------4~~~-4-----------4~~~------|
A|---------------------------------------------------------------------------|
E|---------------------------------------------------------------------------|

e|----------0h2-4-5-4-2-----------------------2-2-2-4-5-7/9-9~~~-------------|
B|-------0h2------------2~~~-(2)-(2h3)-(2)~~~--------------------------------|
G|----1/2--------------------------------------------------------------------|
D|---4-----------------------------------------------------------------------|
A|---------------------------------------------------------------------------|
E|---------------------------------------------------------------------------|

Verse:
======
e|---5-4----------5-4--------------4----------------4------------------------|
B|-------5------------5--------------5----------------5----------------------|
G|---------4h6~~~-------4h6~~~-4-6-----4----------------4--------------------|
D|---------------------------------------4h6~~~
4-6-------4h6~~~-4-6---------|
A|---------------------------------------------------------------------------|
E|---------------------------------------------------------------------------|

Chorus:
=======
F# : 244322
Bm : 224432
D : x00232
A : 577655

Bridge: 1st
===========
e|---5-4--------------9-5----------------------------------------------------|
B|-------5----------------9--------------------------------------------------|
G|---------4h6~~~-4-6-------4h6--4-6-----------------------------------------|
D|---------------------------------------------------------------------------|
A|---------------------------------------------------------------------------|
E|---------------------------------------------------------------------------|

Bridge: 2nd
====== Guitar 1
e|---9-5-------------------------9-5-----------------------------------------|
B|-------9---------------------------9---------------------------------------|
G|---------4h6--4-6-7-6-4-6h7~~~-------4h6--4-6-7-6-4-6h7~~~-----------------|
D|---------------------------------------------------------------------------|
A|---------------------------------------------------------------------------|
E|---------------------------------------------------------------------------|

====== Guitar 2
e|--------------------------14-14-14-12--------------------------------------|
B|--------------------------------------14-12h14-12h14~~~--------------------|
G|---------------------------------------------------------------------------|
D|---------------------------------------------------------11h12~~~-12p11----|
A|------------------------------------------------------------------------12-|
E|---------------------------------------------------------------------------|

Outro:
======
e|---5-4--------------9-5----------------------------------------------------|
B|-------5----------------9--------------------------------------------------|
G|---------4h6~~~-4-6-------4h6--4-6-6~~~~~~~~~~~~~~-------------------------|
D|---------------------------------------------------------------------------|
A|---------------------------------------------------------------------------|
E|---------------------------------------------------------------------------|

==============================================================================
Lyrics
======

VERSE-1
=======
Hay can I talk to you for a minute
Check it out
Yeh, can I tell you that I'm sorry
I'm sorry; just give me one more chance
Don't no

Why, I never realised
I was the fool in you
Never played around
I think you're back untrue

I was hurting you
I should have seen much move
I can not tell you
That I'm sorry

I didn't mean to break your heart
And now I'm all alone and it

CHORUS
======
Hurts so bad
I didn't see it
But she came between us
And baby it drives me mad
How could I loose the only love I had

VERSE-2
=======
No don't you walk away
Come back to me
You'll see
Baby cross my heart
I'll treat you differently

So take my hand
This boy's become a man
So baby tell me it's not over

I didn't mean to break your heart
And now I'm all alone and it

CHORUS
======
Hurts so bad
I didn't see it
But she came between us
And baby it drives me mad
How could I loose the only love I had

My love, my love

Hurts so bad
I didn't see it
But she came between us
And baby it drives me mad
How could I loose the only love I had
How could I loose the only love?

VERSE-3
=======
Late at night, up by the fire light
And how I wanna die, 'cause you're on my mind
Babe its killing me, this misery
This is not the way it's supposed to be
So forgive me girl, please come home to me
(I don't know) yeah this is not the way it's supposed to be

Please come home to me
Cause I don't wanna be alone you see
Caught up in all this misery

Please come home to me
Cause I don't wanna be alone you see
Caught up in all this misery

I didn't mean to break your heart
And now I'm all alone and it

CHORUS
======
Hurts so bad
I didn't see it
But she came between us
And baby it drives me mad
How could I loose the only love I had

Hurts so bad
I didn't see it
But she came between us
And baby it drives me mad
How could I loose the only love I had

Somebody tell me why
Just give me one more chance

==============================================================================

SUPPORT South African Music... IT ROCKS
_________________________________________
|  _____________________________________  |
| |                                     | |
| |   \\=====\\     \\    //        | |
| |   ||------\\     ||--//         | |
| |   ||       ||    || //          | |
| |=======||=======||====||//===========| |
| |=======||=======||====||\\===========| |
| |   ||       ||    || \\          | |
| |   ||------//     ||--\\         | |
| |   //=====//     //    \\        | |
| |_____________________________________| |
|_________________________________________|

==============================================================================

---------------------------
This file passed through:
       Absolute Tabs
   http://www.tabs.co.za
---------------------------