Guitar tablature for As long as I'm here by Prime Circle (tabbed by kunuk)
#----------------------------------PLEASE NOTE---------------------------------#
#This file is the author's own work and represents their interpretation of the #
#song. You may only use this file for private study, scholarship, or research. #
#------------------------------------------------------------------------------##

As Long As I Am Here - Prime Circle


With the help of the string section, this song has a really smooth
feel to it. The verses, interlude, and outro are finger picked, while
the chorus is strummed. If you prefer, you could strum the entire
song. I suggest only one or two strums max per bar to maintain the
groove. FYI - every time I show the finger-picking section, I also
include the chords, just in case.

Here are the chords used in the song for quick reference:
         Am      B       D     Em/G   
e:-------0-------2-------2-------3-------
B:-------1-------4-------3-------0-------
G:-------2-------4-------2-------0-------
D:-------2-------4-------0-------2-------
A:-------0-------2---------------2-------
E:-------0-----------------------0-------

Have fun! Please let me know if there any changes/suggestions you have
to make the tab better,
Your Friendly Neighbourhood Kunuk – kunuk@rocketmail.com

======================================================================

INTRO:
Em/G...C...Am...B...(X4)

  Em/G         C   Am       B       (X2)
E:-3----3----|-----------|-----------|-----------|
B:-----------|-5----5----|-5----5----|-4----4----|
G:-----------|-----------|-----------|-----------|
D:----2----2-|-----------|-----------|-----------|
A:-----------|----3----3-|----0----0-|----2----2-|
E:-----------|-----------|-----------|-----------|

Em/G             C
I find that I am shaking,
Am                      B
From my head down to my feet,
Em/G                  C
My hands are sweating so bad
Am               B
And I can barely speak.
Em/G             C
Read between the lines here
Am              B
I dunno what to think,
Em/G            C     Am     B
It's a guessing game


Em/G          
Was it the face?
C              
Was it the moves?
Am                  B
Was it the way that she just knew me?
Em/G               C            Am       B
Was it the meaning behind every smile


Em/G                     C
I try to walk, but can't leave
Am                          B
Her eyes, they pierce right through me
Em/G
But I don't care
C               Am    B
As long as I am here


CHORUS:
Em/G          C
I can't move ‘cause I'm under her spell
Am                 B
Can't breathe as a side-effect from this
Em/G       C              Am              B
And I know that this will be, the ends of me
Em/G          C
I can't move ‘cause I'm under her spell
Am                 B
Can't breathe as a side-effect from this
Em/G        C        Am           B
And I don't care, as long as I am here


INTERLUDE:
  Em/G        C    Am       B       (X4)
E:-3----3----|-----------|-----------|-----------|
B:-----------|-5----5----|-5----5----|-4----4----|
G:-----------|-----------|-----------|-----------|
D:----2----2-|-----------|-----------|-----------|
A:-----------|----3----3-|----0----0-|----2----2-|
E:-----------|-----------|-----------|-----------|

Em/G              C
My head's a mess, it’s all a blur
Am                   B
But at the same time I am clearer,
Em/G                C          
And I'm feeling so content
Am     B
But unsure,
Em/G          C          
Reaching out, reaching in,
Am                        B
Wish I knew what you were dreaming,
Em/G        C                    Am     B
And I never want to ever let this go.      Yeah.


CHORUS:
Em/G          C
I can't move ‘cause I'm under her spell
Am                 B
Can't breathe as a side-effect from this
Em/G       C              Am              B
And I know that this will be, the ends of me
Em/G          C
I can't move ‘cause I'm under her spell
Am                 B
Can't breathe as a side-effect from this
Em/G        C          Am         B...
And I don't care, as long as I am here, as long as I am here...


OUTRO: (Repeat to fade)
  Em/G        C    Am       B
E:-3----3----|-----------|-----------|-----------|
B:-----------|-5----5----|-5----5----|-4----4----|
G:-----------|-----------|-----------|-----------|
D:----2----2-|-----------|-----------|-----------|
A:-----------|----3----3-|----0----0-|----2----2-|
E:-----------|-----------|-----------|-----------|

======================================================================

---------------------------
This file passed through:
       Absolute Tabs
   http://www.tabs.co.za
---------------------------