Guitar tablature for Hobie Beach by Kinky Robot (tabbed by kunuk)
#----------------------------------PLEASE NOTE---------------------------------#
#This file is the author's own work and represents their interpretation of the #
#song. You may only use this file for private study, scholarship, or research. #
#------------------------------------------------------------------------------##

Hobie Beach - Kinky Robot
Album: Hobie Beach



In memory of Patrick O'Gorman...gone too soon. May he rest in peace.
This tab goes out to all those people who's lives he has touched.

The tab is a combination of chords and finger-picking patterns. It
has both a strong piano and guitar pressence that play equal roles
in the song. You have the option of choosing which role to play.

Although there aren't many chords in the song, it is not in an easy
key to play in. Below I have written the tab using the actual chords
illustrated in bar-chord format. If you are feeling ambitious then
you could tune your guitar down a semi-tone and play the chords on
right in place of the chords on your left. NOTE - the actual tab is
written using standard tuning.

Here are the chords used in the song for quick reference:
       B     C#m    F#     G#m             C     Dm      G     Am
e:-----2------4------2------4-----| d#-----0------1------3------0-----
B:-----4------5------2------4-----| A#-----1------3------0------1-----
G:-----4------6------3------4-----| F#-----0------2------0------2-----
D:-----4------6------4------6-----| C#-----2------0------0------2-----
A:-----2------4------4------6-----| G#-----3-------------2------0-----
E:-------------------2------4-----| D#-------------------3------------

Have fun! Please let me know if there any changes/suggestions you have
to make the tab better,
Your Friendly Neighbourhood Kunuk – kunuk@rocketmail.com

======================================================================

INTRO:
-This pattern plays once for the intro, then repeats through VERSE1
e:----------------------|----------------------|
B:-0~~~-0~~~------0~~~--|----------------0~~~--|
G:-----------3~~~-------|-1~~~-1~~~-3~~~-------|
D:----------------------|----------------------|
A:----------------------|----------------------|
E:----------------------|----------------------|


VERSE1:
B
Write your age in the sand
F#            G#m
Watch it wash away (Happy birthday, happy birthday)
B
Grim reminders of secrets told
F#                 G#m    B
Swept away before unhappy D-day


INTERLUDE:
e:-----4-2~~---4-2~~---4-2~~---4-2~~---4-2~~---4-2------------------|
B:-0---------0-------0-------0-------0-------0-----0-0-0-2----------|
G:---3-----------------------------------------------------3-3-4-3--|
D:------------------------------------------------------------------|
A:------------------------------------------------------------------|
E:------------------------------------------------------------------|


VERSE2:
-Here the piano follows the lyrics, taking turns through the verse

B
On the sand down to the wire
                                                 e:-----------------|
                                                 B:-0~~-2~~---------|
                                                 G:----------1~~~---|
                                                 D:-----------------|
                                                 A:-----------------|
                                                 E:-----------------|
F#          G#m                   B
Sweeter the sun sets (Better than wine)
                                                 e:-----------------|
                                                 B:-0~~-2~~---------|
                                                 G:----------1~~~---|
                                                 D:-----------------|
                                                 A:-----------------|
                                                 E:-----------------|
       C#m             B
Oh we laughed into the fire
                                                 e:-----------------|
                                                 B:-2~~--4~~--------|
                                                 G:----------1~~~~--|
                                                 D:-----------------|
                                                 A:-----------------|
                                                 E:-----------------|
F#                 G#m    B
The night our inhibitions died

                       e:----4-2---4-2---4-2---|-----4-2------------|
                       B:-0------0-----0-----0-|-0-------0-2-4-4~~~-|
                       G:---1------------------|---1----------------|
                       D:----------------------|--------------------|
                       A:----------------------|--------------------|
                       E:----------------------|--------------------|


CHORUS:
-The following pattern repeats twice during the chorus
e:-----4-2~~---4-2~~---4-2~~---4-2~~---4-2~~---4-2------------------|
B:-0---------0-------0-------0-------0-------0-----0-0-0-2----------|
G:---3-----------------------------------------------------3-3-4-3--|
D:------------------------------------------------------------------|
A:------------------------------------------------------------------|
E:------------------------------------------------------------------|

C#m           B
Hobie made me do it (Hobie made me do it)
C#m             B        F#
Where the water drew the line (I crossed it)
C#m                 B
I swear it makes me do it (I swear it makes me do it)
C#m                B
You gotta love it, You gotta love it


INTERLUDE:
e:-----4-2~~---4-2~~---4-2~~---4-2~~---4-2~~---4-2------------------|
B:-0---------0-------0-------0-------0-------0-----0-0-0-2----------|
G:---3-----------------------------------------------------3-3-4-3--|
D:------------------------------------------------------------------|
A:------------------------------------------------------------------|
E:------------------------------------------------------------------|


VERSE3:
-Just like above, the piano follows the lyrics, taking turns through
the verse

B
Get on in while the going is good
                                                 e:-----------------|
                                                 B:-0~~-2~~---------|
                                                 G:----------1~~~---|
                                                 D:-----------------|
                                                 A:-----------------|
                                                 E:-----------------|
F#          G#m                   B
Let your hair down, get carried away
                                                 e:-----------------|
                                                 B:-0~~-2~~---------|
                                                 G:----------1~~~---|
                                                 D:-----------------|
                                                 A:-----------------|
                                                 E:-----------------|
          C#m             B
Watch the sun come up and breathe now
                                                 e:-----------------|
                                                 B:-2~~--4~~--------|
                                                 G:----------1~~~~--|
                                                 D:-----------------|
                                                 A:-----------------|
                                                 E:-----------------|
F#                 G#m
Here’s to the legends of the Bay


CHORUS: (2X)
-The following pattern repeats twice during the chorus
e:-----4-2~~---4-2~~---4-2~~---4-2~~---4-2~~---4-2------------------|
B:-0---------0-------0-------0-------0-------0-----0-0-0-2----------|
G:---3-----------------------------------------------------3-3-4-3--|
D:------------------------------------------------------------------|
A:------------------------------------------------------------------|
E:------------------------------------------------------------------|

C#m           B
Hobie made me do it (Hobie made me do it)
C#m             B        F#
Where the water drew the line (I crossed it)
C#m                 B
I swear it makes me do it (I swear it makes me do it)
C#m                B
You gotta love it, You gotta love it


BRIDGE:
e:------------------------------------------------------------------|
B:-2-4~~~~~~-------2-4~~~~~~-------2-4~~~~~~-------0-0-0-2----------|
G:---------------------------------------------------------3-3-4-3--|
D:------------------------------------------------------------------|
A:------------------------------------------------------------------|
E:------------------------------------------------------------------|
   You gotta love it, You gotta love it, You gotta love it...

e:------------------------------------------------------------------|
B:-2-4~~~~~~-------2-4~~~~~~-------2-4~~~~~~-------0-0-0-2----------|
G:---------------------------------------------------------3-3-4-3--|
D:------------------------------------------------------------------|
A:------------------------------------------------------------------|
E:------------------------------------------------------------------|
   You gotta love it, You gotta love it, You gotta love it...


OUTRO:
-Just like above, the piano follows the lyrics, taking turns through
the outro

B
Hobie made me do it (Hobie made me do it)
                                                 e:-----2~~-4~~-----|
                                                 B:-0~~---------4~~-|
                                                 G:-----------------|
                                                 D:-----------------|
                                                 A:-----------------|
                                                 E:-----------------|
F#              G#m
Where the water drew the line (I crossed that line)
                                                 e:-----2~~-4~~-----|
                                                 B:-0~~---------4~~-|
                                                 G:-----------------|
                                                 D:-----------------|
                                                 A:-----------------|
                                                 E:-----------------|
B                         
I swear it makes me do it
                                                 e:-----------------|
                                                 B:-2~~--4~~--------|
                                                 G:-----------1~~---|
                                                 D:-----------------|
                                                 A:-----------------|
                                                 E:-----------------|

F#    B...    You gotta love it

e:-----4-2~~---4-2~~---4-2~~---4-2~~---4-2~~--|
B:-0---------0-------0-------0-------0--------|
G:---3----------------------------------------|
D:--------------------------------------------|
A:--------------------------------------------|
E:--------------------------------------------|

Where the water drew the line (You gotta love it)

e:---4-2------------------|
B:-0-----0-0-0-2----------|
G:---------------3-3-4-3--|
D:------------------------|
A:------------------------|
E:------------------------|

I swear it makes me do it (You gotta love it)

e:-----4-2~~---4-2~~---4-2~~---4-2~~---4-2~~--|
B:-0---------0-------0-------0-------0--------|
G:---3----------------------------------------|
D:--------------------------------------------|
A:--------------------------------------------|
E:--------------------------------------------|

You gotta love it, You gotta love it

e:---4-2------------------|
B:-0-----0-0-0-2----------|
G:---------------3-3-4-3--|
D:------------------------|
A:------------------------|
E:------------------------|

Hobie makes...

e:-----4---2-2---2------4---2-2---2------4---2-2---2------4--2-2---2-|
B:-------4-----4----------4-----4----------4-----4---------------4---|
G:-4-4--------------4-4--------------4-4--------------4-4------------|
D:-------------------------------------------------------------------|
A:-------------------------------------------------------------------|
E:-------------------------------------------------------------------|

e:-----2~~---------||
B:-4~~-------------||
G:---------4~~~~~--||
D:-----------------||
A:-----------------||
E:-----------------||

======================================================================
                                                     Rock on!
                                                              Sterkte!

---------------------------
This file passed through:
       Absolute Tabs
   http://www.tabs.co.za
---------------------------