Guitar tablature for Suffer by Downfall (tabbed by Nevay)
#----------------------------------PLEASE NOTE---------------------------------#
#This file is the author's own work and represents their interpretation of the #
#song. You may only use this file for private study, scholarship, or research. #
#------------------------------------------------------------------------------##

Standard E Tuning (Drop D)

INTRO (gt1+2 / dist)
3|-------8---|    
4|-0---0-7-6-|    |-6-5--5--3h5-5p3-|
5|-0---0-5-6-|    |-6-5--5--3h5-5p3-|
6|-0---0---6-| x3 |-6-5--5--3h5-5p3-|
       .                 .

3|-------8---|    
4|-0---0-7-6-|    |-6-5--5--3h5-5p3--0-           -|
5|-0---0-5-6-|    |-6-5--5--3h5-5p3--0 (let ring) -|
6|-0---0---6-| x3 |-6-5--5--3h5-5p3--0-           -|
       .                 .

(drum roll)
(gt1 over drum roll / dist)
6|-0-0-0-12-12-12-8-8-8-7-7-7-5-5-7-7-| x3 |-0-0-0-12-12-12-8-8-8-7-7-7-5m-| small pause
   . . . .  .  .  . . . . . . . . . .        . . . .  .  .  . . . . . . .

(gt1+2 dist)
3|------8            ------------|  |------8            ---------|
4|-0---07 (let ring) -8-7-5h7-77-|  |-0---07 (let ring) -8-7-5-1-|
5|-0---05            -8-7-5h7-77-|  |-0---05            -8-7-5-1-|
6|-0---0--------------8-7-5h7-77-|x3|-0---0--------------8-7-5-1-|
       .

3|------8            ------------|  |------8            ----------|
4|-0---07 (let ring) -8-7-5h7-77-|  |-0---07 (let ring) -8-7-5-1m-|
5|-0---05            -8-7-5h7-77-|  |-0---05            -8-7-5-1m-|
6|-0---0--------------8-7-5h7-77-|x3|-0---0--------------8-7-5-1m-|
       .

VERSE (gt1 dist) x2
6|-0-0-0-12-12-12-8-8-8-7-7-7-5-5-7-7-| x3 |-0-0-0-12-12-12-8-8-8-7-7-7-5-5-5-5-|
   . . . .  .  .  . . . . . . . . . .        . . . .  .  .  . . . . . . . . . .

(gt1+2 dist)
3|------8            ------------|  |------8            ---------|
4|-0---07 (let ring) -8-7-5h7-77-|  |-0---07 (let ring) -8-7-5-1-|
5|-0---05            -8-7-5h7-77-|  |-0---05            -8-7-5-1-|
6|-0---0--------------8-7-5h7-77-|x3|-0---0--------------8-7-5-1-|
       .

CHORUS (gt1+2 dist)
3|-10------12------------7777--------7777-8888-|
4|-10------12--5--0------xxxx-0------xxxx-xxxx-|
5|-8-------10--5--0------5555-0------5555-6666-|
6|-8-------10--5--0-----------0----------------|

3|-10------12----| |------8            ------------|
4|-10------12--5-| |-0---07 (let ring) -8-7-5h7-77-|
5|-8-------10--5-| |-0---05            -8-7-5h7-77-|
6|-8-------10--5-| |-0---0--------------8-7-5h7-77-|x2

3|-10------12------------7777--------7777-8888-|
4|-10------12--5--0------xxxx-0------xxxx-xxxx-|
5|-8-------10--5--0------5555-0------5555-6666-|
6|-8-------10--5--0-----------0----------------|

3|-10------12----| |------8            ------------|  |------8            ---------|
4|-10------12--5-| |-0---07 (let ring) -8-7-5h7-77-|  |-0---07 (let ring) -8-7-5-1-|
5|-8-------10--5-| |-0---05            -8-7-5h7-77-|  |-0---05            -8-7-5-1-|
6|-8-------10--5-| |-0---0--------------8-7-5h7-77-|x3|-0---0--------------8-7-5-1-|

VERSE
CHORUS (end on long note)
4|-1-          -|
5|-1 (let ring) |
6|-1-          -|

BRIDGE (gt1 clean) x8
4|-----7---5---8-7-3-1-------7---5---8-7---5p3---3p1-|
5|---5---5---5-----3-1-----5---5---5-----------------|
6|-0---------------3-1---0---------------3-----1-----|

4|---5p3---3p1-|
5|-3-----1-----|
6|-------------|

(gt2 dist / come in after gt1 x4) x2
4|-0-|
5|-0-|
6|-0-|

OUTRO (gt1+2) x2
3|-------8---|    
4|-0---0-7-6-|    |-6-5--5--3h5-5p3-|
5|-0---0-5-6-|    |-6-5--5--3h5-5p3-|
6|-0---0---6-| x3 |-6-5--5--3h5-5p3-|
       .                 .

---------------------------
This file passed through:
       Absolute Tabs
   http://www.tabs.co.za
---------------------------