Guitar tablature for Liedjie vir die Besemtannie by Klopjag
#----------------------------------PLEASE NOTE---------------------------------#
#This file is the author's own work and represents their interpretation of the #
#song. You may only use this file for private study, scholarship, or research. #
#------------------------------------------------------------------------------##


Song: Liedjie vir die Besemtannie
Band:Klopjag
Album: 15de Laan
Tabbed by: Renier Henning
Standard tuning

Intro:
   C    G            C       G       C   
|-0----------------------------------------|
|-1----------------------------------------|
|-0---------3bend/1------------------------|
|-2-----------------2)bend----------2)bend-|
|-3---2)bend--------3)bend--2)bend--3)bend-|
|-----3)bend----------------3)bend---------|

G                          Em
Sy is so gemaak en so laat staan
                         C
deur al die winde en die storms
           G
van haar bestaan

G                   Em
Besem in die hand

vee sy ons sypaadjie,
C              D  dsus4 d
soms, as ek verby stap

G                     Em
Sy was jonk en hy was vreemd,
                             C
sy o� was blou, haar rok was pers
                 Am            D
Hy�t haar hart gesteel, toe hy s�:
                              G
�Maar jy lyk so mooi  soos �n Bybelvers�

Guitar2(listen to the song. picking is quick and many times)
|------------------------------------------------------------|
|-10-10-10 etc-8-8-8-8 etc-7-7-7-7-etc-------------8-7h8-8-8-|
|------------------------------------------------------------|
|------------------------------------------------------------|
|------------------------------------------------------------|
|------------------------------------------------------------|
Chorus:
G                       Em
Sy s� sy het alles nou vergeet,
                                 C
waaraan kan �n mens die hartseer meet?

Nou vee sy maar
        Am
tot die stof gaan l�
        D
en die skrapnel van haar hart
       G
in die pad bly l�

G C G C

G                           Em
Sy hoor die rand het weer geval,

sulke sinnelose nuus
               C
maak haar soms mal

Gaan niemand iets s�
        Am
oor die vrouens van die nag
         D
wat haar sypaadjie
       G
so vol stof betrap

Chorus:
G                       Em
Sy s� sy het alles nou vergeet,
                                 C
waaraan kan �n mens die hartseer meet?

Nou vee sy maar
        Am
tot die stof gaan l�
        D  Dsus4  D
en die skrapnel van haar hart
       G
in die pad bly l�

Solo:(not 100% but close enough)
  G                             Em                              C
(all this is quick and many times like before)     (normal picking now)
|-15-15-15-15-15-14-14-14-14-14-12-12-12-12-12-|----------------------------|
|----------------------------------------------|-15-15-15-13-12-12h13-------|
|----------------------------------------------|----------------------12-12-|
|----------------------------------------------|----------------------------|
|----------------------------------------------|----------------------------|
|----------------------------------------------|----------------------------|
                 Am              D                          G
|----------------------------|----------------------------|----------------------|
|-15-15-15-13-12-12h13-------|----------------------------|-12-12----------------|
|----------------------12-12-|-11h12p11-------------------|-------14-14-12-14-12-|
|----------------------------|----------12-14-12-10h12-12-|----------------------|
|----------------------------|----------------------------|----------------------|
|----------------------------|----------------------------|----------------------|
    Em                              C                       
|------------------------------------------------------------------|
|--12-12-12--------------------------------------------------------|
|-----------14-14-14-12-14-12-11-11-11h12-9h11-7h9-5h7p5-----------|
|----------------------------------------------------------9-10-12-|
|------------------------------------------------------------------|
|------------------------------------------------------------------|
    Am                           D
|-----------------------------|--------------------------------------------------|
|-----------------------------|--------------------------------------------------|
|-----------------------------|--------------------11-11h12-12-12-14-12-11h12-12-|
|--10-9-10-9------------------|---------9h10-12-12-------------------------------|
|------------10-12-10-9h10-10-|-9h10-10------------------------------------------|
|-----------------------------|--------------------------------------------------|

Chorus:
G                       Em
Sy s� sy het alles nou vergeet,
                                 C
waaraan kan �n mens die hartseer meet?

Nou vee sy maar
        Am
tot die stof gaan l�
        D  Dsus4  D
en die skrapnel van haar hart
       G
in die pad bly l�

------------------------------------------------------------------------------------------------
Enjoy. oh and if anybody has any comments or suggestions mail me at mclarennar@mweb.co.za


---------------------------
This file passed through:
       Absolute Tabs
   http://www.tabs.co.za
---------------------------