Bass tablature for 69 Tea by Seether
#----------------------------------PLEASE NOTE---------------------------------#
#This file is the author's own work and represents their interpretation of the #
#song. You may only use this file for private study, scholarship, or research. #
#------------------------------------------------------------------------------##

Artist: Seether
  Song: 69 Tea
Album: Disclaimer
Tabber: BRAD
  Info: Standard Tuning, unlike what some tabs say

Intro= Guitar and vocals

Kick in bass when drums start

Verse
|-----------------|
|-----------------|
|-----5-----------|x4
|3----------5---6-|

Chorus1
|-------------------------------||-------------------------------|
|-------------------------------||-------------------------------|
|7-7-7-7---------------3--3-3-3-||7-7-7-7---------------3/0------|x2
|--------7-7-7-7-5-5-5----------||--------7-7-7-7-5-5-5----------|

Verse2
|------repeatx7---|
|-----------------||-------------------|
|-----------------||-------------------|
|-----5-----------||-----5-------------|
|3----------5---6-||3----------5-5-5-6-|

Chorus1
|-------------------------------||-------------------------------|
|-------------------------------||-------------------------------|
|7-7-7-7---------------3--3-3-3-||7-7-7-7---------------3/0------|x2
|--------7-7-7-7-5-5-5----------||--------7-7-7-7-5-5-5----------|

"SAY YOU WILL..."
|---------------------------------|
|---------------------------------|
|3-3-3-3---------2-2-2-2----------|x6
|--------4-4-4-4---------1-1-1-1--|

Guitar Solo
|-----------------||-------------------|
|-----------------||-------------------|
|-----5-----------||-----5-------------|x2
|3----------5---6-||3---------5-5-5-6--|

Soft Part when Shaun still sings
The Bass's volume is turned down here
|-------------------------------|
|-------------------------------|
|7-7-7-7---------------3--3-3-3-|x2  i think palm mute the bass here
|--------7-7-7-7-5-5-5----------|

Chorus
|-------------------------------||-------------------------------|
|-------------------------------||-------------------------------|
|7-7-7-7---------------3--3-3-3-||7-7-7-7---------------3/0------|
|--------7-7-7-7-5-5-5----------||--------7-7-7-7-5-5-5----------|

Silent Part=

"SAY YOU WILL..."
|---------------------------------|
|---------------------------------|
|3-3-3-3---------2-2-2-2----------|x8
|--------4-4-4-4---------1-1-1-1--|

There Ya GO!!!! Hope it sounds right to you out there.
Good Luck with the tab and have fun

www.seether.com

any queries, comments

send em to
nagle5000@yahoo.com

---------------------------
This file passed through:
       Absolute Tabs
   http://www.tabs.co.za
---------------------------