Bass tablature for Pride by Seether
#----------------------------------PLEASE NOTE---------------------------------#
#This file is the author's own work and represents their interpretation of the #
#song. You may only use this file for private study, scholarship, or research. #
#------------------------------------------------------------------------------##

     SONG: Pride
   ARTIST: Seether
    ALBUM: Disclaimer
  WEBSITE: http://www.seether.com

     TYPE: Bass Tablature
TABBED BY: BRad
    EMAIL:
COMMENTS:

The tuning is Drop you E to D
INTRO
|===x16===|  
|---------|  
|---------|  
|---------|
|0p1p3p0--|  

VERSE1
|======x4=====|
|-------------|  |-----------------------|
|-------------|  |-----------------------|
|-------------|  |-----------------------|
|0p1p3p0------|  |8-----------------5----|

VERSE2
|======x4=====|
|-------------|  |-----------------------|
|-------------|  |-----------------------|
|-------------|  |-----------------------|
|0p1p3p0------|  |8-----------------5----|

CHORUS 1
|=========================x2===============================|
|----------------------------------------------------------|
|----------------------------------------------------------|
|----------------------------------------------------------|
|0----0-----10-----10------8------8------8------8---3--3---|

VERSE3
|======x8=====|
|-------------|  |-----------------------|
|-------------|  |-----------------------|
|-------------|  |-----------------------|
|0p1p3p0------|  |8-----------------5----|

VERSE4
|======x4=====|
|-------------|  |-----------------------|
|-------------|  |-----------------------|
|-------------|  |-----------------------|
|0p1p3p0------|  |8-----------------5----|

CHORUS 2
|=========================x4===============================|
|----------------------------------------------------------|
|----------------------------------------------------------|
|----------------------------------------------------------|
|0----0-----10-----10------8------8------8------8---3--3---|

Interlude
|===============x4==================|
|-----------------------------------|
|-----------------------------------|
|--3/5-5----5\3-3----3/5-5----8-8---|
|0--------0--------0--------0-------|

|===============x2==================|
|-----------------------------------|
|-----------------------------------|
|-----------------------------------|
|0--------0--------0----------------|

VERSE5
|======x4=====|
|-------------|  |-----------------------|
|-------------|  |-----------------------|
|-------------|  |-----------------------|
|0p1p3p0------|  |8-----------------5----|

VERSE6
|======x4=====|
|-------------|  |-----------------------|
|-------------|  |-----------------------|
|-------------|  |-----------------------|
|0p1p3p0------|  |8-----------------5----|

VERSE7
|======x4=====|
|-------------|  |-----------------------|
|-------------|  |-----------------------|
|-------------|  |-----------------------|
|0p1p3p0------|  |8-----------------5----|

VERSE8
|======x4=====|
|-------------|  |-----------------------|
|-------------|  |-----------------------|
|-------------|  |-----------------------|
|0p1p3p0------|  |8-----------------5----|

CHORUS 3
|=========================x6===============================|
|----------------------------------------------------------|
|----------------------------------------------------------|
|----------------------------------------------------------|
|0----0-----10-----10------8------8------8------8---3--3---|


---------------------------
This file passed through:
       Absolute Tabs
   http://www.tabs.co.za
---------------------------