Bass tablature for Pachelbel by Henry Ate
#----------------------------------PLEASE NOTE---------------------------------#
#This file is the author's own work and represents their interpretation of the #
#song. You may only use this file for private study, scholarship, or research. #
#------------------------------------------------------------------------------##

Pachelbel
Album : One Day Soon
As Performed by Karma
Bass Tab
Music, Words by Karma

Transcribed by H. Peter Visser
email : drpepper@freemail.absa.co.za

  INTRO
G| |-----------|-----------|-----------|-----------|-----------|-----------|
D|2|---7---7---|-----------|-----------|-----------|-----------|---7-------|
A|2|-----------|---7---7---|---9---9---|---4---4---|---5---5---|-----------|
E| |-----------|-----------|-----------|-----------|-----------|-------5---|

G|------------|------------|
D|------------|------------|
A|---5---5----|---7---7----|
E|------------|------------|


VERSE 1 (0:15)

     Lie    awake beneath the stars                           talk   
doesn't happen   no               it never will I guess but I can hope     
G||-------------|--------------|--------------|-------------|--------------|
D||.----7---~---|--------------|--------------|-------------|-----7---~----|
A||.------------|---7----~-----|-----4---~----|---5----~----|--------------|
E||-------------|--------------|--------------|-------------|--------------|

of dreams life's ironies thus    far                and in your  arms we're  
      I can     think of you at times thought it best to let you know you've
G|-----------|------------|--------------|------------------|-------------|
D|-----------|------------|--------------|-------7----~-----|-------------|
A|--7---~----|--4---~-----|-----5---~----|------------------|----7----~---|
E|-----------|------------|--------------|------------------|-------------|  

   close enough to kiss it
      crept into my mind      and it's too
G|------------|------------||---------|
D|------------|-----------.||---------|    
A|------4---~-|----5---~--.||--~---~--|
E|------------|------------||---------|


CHORUS (1:01)

   l   a   t    e   to     say      goodbye it's too e a r l y    y e t  to
G|--------|------------|------------|------------|------------|------------|
D|-7---7--|------------|------------|------------|------------|---7--------|
A|--------|---7---7----|---9---9----|---4---4----|---5---5----|------------|
E|--------|------------|------------|------------|------------|-------5----|




     think you can be mine it's too l    a     t    e      to say      
G|--------------|--------------|-------------|------------|------------|
D|--------------|--------------|----7---7----|------------|------------|
A|---5----5-----|-----7---7----|-------------|---7---7----|---9---9----|
E|--------------|--------------|-------------|------------|------------|

goodbye it's too     e a r l y   y e t  to think you can be mine so we'll
G|------------|------------|------------|--------------|----------------|
D|------------|------------|------------|--------------|----------------|
A|---4---4----|---5---5----|------------|---5-----5----|-----7----7-----|
E|------------|------------|---5---5----|--------------|----------------|

VERSE 2 (1:30)
         talk ev'ry   now and then    bout our day to day   never say i n'
     I smile a little dif'rently when you're  close   by  make it hard for
G||--------------|--------------|---------------|-------------|----------|
D||.---7---~-----|--------------|---------------|-------------|---7---~--|
A||.-------------|----7---~-----|-----4----~----|-----5---~---|----------|
E||--------------|--------------|---------------|-------------|----------|

the  things we'd  both call to  say I think
me to p u s h      all my fears aside and it's too
G|-------------|------------|--------------||------------|
D|-------------|------------|-------------.||------------|
A|----7---~----|---4--~-----|----5---~----.||---~---~----|
E|-------------|------------|--------------||------------|

CHORUS (2:01)

   l    a    t    e       to say   goodbye it's too e a r l y   y e t  to
G|--------9-|------------|----------|-----------|------------|-----------|
D|-7---7----|------------|----------|-----------|------------|--7---7----|
A|----------|---7---7----|---9---9--|--4---4----|---5---5----|-----------|
E|----------|------------|----------|-----------|------------|-----------|

   think you can be mine it's too l   a    t   e    to say    goodbye it's
G|------------|--------------|----------9-|---------|----------|---------|
D|------------|--------------|----7--7----|---------|----------|---------|
A|-5----5-----|-----7---7----|------------|--7---7--|---9---9--|--4---4--|
E|------------|--------------|------------|---------|----------|---------|

too e a r l y    y e t     to think you can be mine so what's love
G|------------|------------|--------------|----------------|
D|------------|------------|--------------|----------------|
A|---5---5----|------------|---5-----5----|-----7----7-----|
E|------------|---5---5----|--------------|----------------|


VERSE 3 (2:31)

   you ask           and I think it over            and       a l l   my  
       stay drive me crazy     in   vain             there is pleasure to
G||-------------|--------------|------------|------------|--------------|
D||.---7---~----|--------------|------------|------------|----7----~----|
A||.------------|----7----~----|----4---~---|---5---~----|--------------|
E||-------------|--------------|------------|------------|--------------|

     dillusions  collapse          so you can
   be found   in   this sort of pain
G|-------------|------------|-------------||
D|-------------|------------|------------.||
A|----7---~----|---4--~-----|---5---~----.||
E|-------------|------------|-------------||


CHORUS (3:00)

                                and it's too  l     a     t     e    
G|-----------|-----------|--------------|------------9-|------------|
D|-----------|-----------|--------------|-----7---7----|-----(7)/11-|
A|-----------|---5---5---|---7----7-----|--------------|---7--------|
E|---5---~---|-----------|--------------|--------------|------------|

to  say      goodbye it's too e a r l y    yet       to think you
G|------------|------------|------------|------------|--------------|
D|------------|------------|------------|------------|--------------|
A|---9---9----|---4---4----|---5---5----|------------|---5----5-----|
E|------------|------------|------------|---5---5----|--------------|

can be mine it's too l            a                 t              e                                
G|--------------|--------9/11-|--9------|--11--------|-------|-------|
D|--------------|----7--------|------9--|----11------|-------|-------|
A|----7----7----|-------------|---------|---------9--|-4--4--|-5--5--|
E|--------------|-------------|---------|------------|-------|-------|

      so what's love
G|------------|------------|---------------|
D|---7--------|------------|---------------|
A|------------|---5---5----|---7-----7-----|
E|-------5----|------------|---------------|


VERSE 3 REPEAT (3:36)

   you ask           and I think it over          and       a l l   my  
       stay drive me crazy     in   vain           there is pleasure to
G||-------------|--------------|------------|----------|--------------|
D||.---7---~----|--------------|------------|----------|----7----~----|
A||.------------|----7----~----|----4---~---|--5--~----|--------------|
E||-------------|--------------|------------|----------|--------------|

     dillusions  collapse          so you can
   be found   in   this sort of pain
G|-------------|------------|-------------||
D|-------------|------------|------------.||
A|----7---~----|---4--~-----|---5---~----.||
E|-------------|------------|-------------||



---------------------------
This file passed through:
       Absolute Tabs
   http://www.tabs.co.za
---------------------------