Bass tablature for Morningstar, Durbanville by Fokofpolisiekar (tabbed by crumpuppet)
#----------------------------------PLEASE NOTE---------------------------------#
#This file is the author's own work and represents their interpretation of the #
#song. You may only use this file for private study, scholarship, or research. #
#------------------------------------------------------------------------------##

Tab deur Hannes van Zyl


Fokofpolisiekar - Morningstar, Durbanville


intro

(0:10)
G|-----------------------------------------------------|
D|-----------------------------------------------------|
A|-----------------------------5-5---3-3---------------|
D|-7-7-4-2-2---2-2---2-2---2-2------------5-5---4---2~-|


(0:33, main riff)
G|-------------|
D|-------------|
A|-3-----------|
D|----5--7--2--|


(0:37)
(x2)
G|---------------------|-----------------------------|
D|---------------------|-----------------------------|
A|---------------------|-3333------------------------|
D|-2222-2222-2222-2222-|-------5555--7777--2222-2222-|



(0:52 - "die ster wat ek volg...")
G|---------------------------------|
D|---------------------------------|
A|---------------------------------|
D|-222-555-777-777--222-555--7-7-7-|

G|---------------------------------|
D|---------------------------------|
A|---------------------------3-3-3-|
D|-222-555-777-777--222-555--------|



(1:02 - "soepel en sag...")
(x2)
G|---------------------|-----------------------------|
D|---------------------|-----------------------------|
A|---------------------|-333-------------------------|
D|-2222-2222-2222-2222-|------555--777--2222-2222----|



(1:18 - "hierdie stad het jou by my gesteel...")
(x2)
G|---------------------|
D|---------------------|
A|---------3-----------|
D|-2~---------5--7--2--|



(1:32 - "ek hoop die waarheid...")
G|------------------------------------------|
D|------------------------------------------|
A|----------------5555------------3333-3333-|
D|-2222-2222-2222-------5555-5555-----------|

G|----------------------------------|
D|----------------------------------|
A|----------------5555------------3-|
D|-2222-2222-2222-------5555-5555---|


(1:47)
G|---------------------|
D|---------------------|
A|-------3-3-3---3-3-3-|
D|-2-2-----------------|


(1:58)
(x4)
G|---------------------|-----------------------------|
D|---------------------|-----------------------------|
A|---------------------|-333-------------------------|
D|-2222-2222-2222-2222-|------555--777--2222-2222----|



(2:28 - "hierdie stad het jou by my gesteel...")
G|---------------------|---------------|
D|---------------------|---------------|
A|---------------------|-3-------------|
D|-2222-2222-2222-2222-|----5--7--2-2--|

G|---------------------|-----------------------------|
D|---------------------|-----------------------------|
A|---------------------|-333-------------------------|
D|-2222-2222-2222-2222-|------555--777--2222-2222----|


(2:43 - "skemers op strande...")
G|------------------------------------------|
D|------------------------------------------|
A|----------------5555------------3333-3333-|
D|-2222-2222-2222-------5555-5555-----------|

G|--------------------------------------|
D|--------------------------------------|
A|----------------5555------------3-----|
D|-2222-2222-2222-------5555-5555----7--|



outro (2:57)

G|---------------------------------------------|
D|---------------------------------------------|
A|-----------------------5-5---3-3-------------|
D|-2-2---2-2---2-2---2-2------------x5-5---x4--|

(3:09)

G|--------------------|
D|--------------------|
A|--------------------|
D|-2-2---2-2---777-5--|

G|----------------------------------------------------|
D|----------------------------------------------------|
A|----------------------------------------------------|
D|-222-555-777-777--222-555-777-777---222-555-777-777-|

G|-----------------|
D|-----------------|
A|----------3-3-3~-|
D|-222-555---------|

---------------------------
This file passed through:
       Absolute Tabs
   http://www.tabs.co.za
---------------------------