Guitar tablature for Buy the world by Tweak
#----------------------------------PLEASE NOTE---------------------------------#
#This file is the author's own work and represents their interpretation of the #
#song. You may only use this file for private study, scholarship, or research. #
#------------------------------------------------------------------------------##

Band: Tweak
Song: Buy the world
Album: The romantic lure of possum worship Tabbed by Tara Senior

Intro: riff1 = continues through whole intro

(x1)
e|--------------|
B|--------------|
G|-9-9-8-8-9-9-8|
D|--9-9-9-9-9-9-|
A|--------------|
E|--------------|

(x3)
e|-----------------|
B|-----------------|
G|-9-9-8-8-9-9-8-8-|
D|--9-9-9-9-9-9-9-9|
A|-----------------|
E|-----------------|

(x1)
e|------------------------------|
B|------------------------------|
G|-9-9-11-11-11-11-11-11--------|
D|--9-9--9--9--9--9--9----------|
A|------------------------------|
E|------------------------------|

Intro riff 2 / verse (x4)
Play: intro = power-chords and verse = barred-chords
e|-----------------------------------------------|
B|-----------------------------------------------|
G|---9-9-9---------------------------------------|
D|---9-9-9---6-6-6---7-7-7---9-9-9---------------|
A|---7-7-7---6-6-6---7-7-7---9-9-9---------------|
E|-----------4-4-4---5-5-5---7-7-7---------------|

Play this part where Garth sings " well I never really met her…"(x3) Just listen for it.
e|---11-12-11-7---12-11-7------12-11-7---11-7------------|
B|-------------------------------------------------------|   
G|-------------------------------------------------------|
D|-------------------------------------------------------|
A|-------------------------------------------------------|
E|-------------------------------------------------------|

(x1)
e|---11-12-11-7-|  
B|--------------|  
G|--------------|
D|--------------|
A|--------------|
E|--------------|



Chorus:
"I’ll buy the world, if you... if you want...I will.."(x2)
e|-----------------------------------------------------------------|
B|-----------------------------------------------------------------|
G|---9-9-9-9-9-9-9-------------------------------------------------|
D|---9-9-9-9-9-9-9-------6-6-6-6-6-6-6---7-7-7-7-7-7-7---9-9-------|
A|---7-7-7-7-7-7-7-------6-6-6-6-6-6-6---7-7-7-7-7-7-7---9-9-------|
E|-----------------------4-4-4-4-4-4-4---5-5-5-5-5-5-5---7-7-------|

(x1)
e|-----------------|
B|-----------------|
G|-9-9-8-8-9-9-8-8-|
D|--9-9-9-9-9-9-9-9|
A|-----------------|
E|-----------------|

(x1)
e|-------------------------------------|
B|-------------------------------------|
G|-9-9-8-8-11-11-11-11-11-11-----------|
D|--9-9-9-9--9--9--9--9--9-------------|
A|-------------------------------------|
E|-------------------------------------|

Intro riff 2 / verse (x4)
Play: intro = power-chords and verse = barred-chords
e|-----------------------------------------------|
B|-----------------------------------------------|
G|---9-9-9---------------------------------------|
D|---9-9-9---6-6-6---7-7-7---9-9-9---------------|
A|---7-7-7---6-6-6---7-7-7---9-9-9---------------|
E|-----------4-4-4---5-5-5---7-7-7---------------|

Play this part where he sings " well I never really met her…"(x3) Just listen for it.
e|---11-12-11-7---12-11-7------12-11-7---11-7------------|
B|-------------------------------------------------------|
G|-------------------------------------------------------|
D|-------------------------------------------------------|
A|-------------------------------------------------------|
E|-------------------------------------------------------|

(x1)
e|---11-12-11-7-|  
B|--------------|  
G|--------------|
D|--------------|
A|--------------|
E|--------------|

Chorus:
"I’ll buy the…… you, if you…… if you want… …I will.."(x2)
e|-----------------------------------------------------------------|
B|-----------------------------------------------------------------|
G|---9-9-9-9-9-9-9-------------------------------------------------|
D|---9-9-9-9-9-9-9-------6-6-6-6-6-6-6---7-7-7-7-7-7-7---9-9-------|
A|---7-7-7-7-7-7-7-------6-6-6-6-6-6-6---7-7-7-7-7-7-7---9-9-------|
E|-----------------------4-4-4-4-4-4-4---5-5-5-5-5-5-5---7-7-------|


(x3)
after the second time Garth sings that he plays somethin like this twice.
e|------------------------------------|
B|------------------------------------|
G|---9-9-9----------------------------|
D|---9-9-9---6---7---9---7------------|
A|---7-7-7---6---7---9---7------------|
E|-----------4---5---7---5------------|

Intro riff 2 / verse (play till end of song)
Play: intro = power-chords and verse = barred-chords
e|-----------------------------------------------|
B|-----------------------------------------------|
G|---9-9-9---------------------------------------|
D|---9-9-9---6-6-6---7-7-7---9-9-9---------------|
A|---7-7-7---6-6-6---7-7-7---9-9-9---------------|
E|-----------4-4-4---5-5-5---7-7-7---------------|


I think that’s all of it, if you have any comments please e-mail me on tarasenior@hotmail.com. Its as accurate as I could get it, so I hope u enjoy it! Play it as loud as possible and wake up the neighbors!!! The strumming is really easy 2 work out jus listen to it! Thanks to Johan Swanepoel, I couldn't have tabbed this without your original version!

---------------------------
This file passed through:
       Absolute Tabs
   http://www.tabs.co.za
---------------------------