Guitar tablature for Sindikaat by Ef-el (tabbed by G3752)
#----------------------------------PLEASE NOTE---------------------------------#
#This file is the author's own work and represents their interpretation of the #
#song. You may only use this file for private study, scholarship, or research. #
#------------------------------------------------------------------------------##

èF-èL : Sindikaat

Vir vrae/Koreksies e-mail my by gabriel3752@gmail.com

Ek sê Ahoy Daar! Ek is op Twitter! So maak 'n plan en volg die man @GabrielRoux3752

Guitar:1 (lead)  Db Ab Db Gb Bb Eb

Guitar:2 (rythm) Db Ab Db Gb Bb Eb

Bass:            Db Ab Db Gb

Sleutel:
h - Hammer-on
p - Pull-off
/ - Slide
* - Palm mute
x - Mute
~ - let ring

_______________________________________________________________________________________________

INTRO:
_______________________________________________________________________________________________

Bass:
                                                                          _________
Gb|----------------------------------------------------------------------|         |
Db|----------------------------------------------15-15-15-0-0-12-0-15-0--|         |
Ab|-0-0-0-0-15-14-0--0-0-15-0-14-0--0-15-14-0--0-------------------------|         |
Db|----------------------------------------------------------------------|         |
                                                                                   |- X2
Gb|-----------------------------------------------------------|                    |
Db|--0-0-12-0-15-0--0-0-12-0-15-0--0-0-12-0-15-0--------------|                    |
Ab|-----------------------------------------------------------|                    |
Db|-----------------------------------------------------------|____________________|

Riff 1

Guitar: 1  

Eb|--------------------------------------------------------------|
Bb|--------------------------------------------------------------|
Gb|--------------------------------------------------------------|  X4
Db|--------------------0-5-7-0-7-8-0-----------------------------|
Ab|-0-3-5-0-5/8-0-8-10-------------------------------------------|
Db|--------------------------------------------------------------|

Guitar: 2
Val in NADAT Guitar 1 riff 1 2 keer gespeel het

Eb|--------------------------------------------------------------|
Bb|--------------------------------------------------------------|
Gb|--------------------------------------------------------------|  X2
Db|--------0-5-7-0-7-8-0-8-10-0-10-12-0--------------------------|
Ab|-0-8-10-------------------------------------------------------|
Db|--------------------------------------------------------------|

Riff 2:

Beide guitars:

Eb|--------------------------------------------------------------|
Bb|--------------------------------------------------------------|
Gb|-------------17-17-17-17-17-17-17-17-17-17--------------------|  X4
Db|-0--0-0------x--x--x--x--x--x--x--x--x--x---------------------|
Ab|-0--0-0------15-15-15-15-15-15-15-15-15-15--------------------|
Db|-0--0-0-------------------------------------------------------|
    *  * *
______________________________________________________________________________________________

Verse
______________________________________________________________________________________________

Riff 3:

Guitar 1:

Eb|--------------------------------------------------------------|
Bb|--------------------------------------------------------------|
Gb|-----3-2-0-2-0---0----------------0---------------0-----------|  X2
Db|-0-0-----------3---3-2-3-2-0--------3-2-3-2-0-------3-2-3-----|
Ab|------------------------------3-3-------------3---------------|
Db|--------------------------------------------------------------|

Guitar 2:

still
______________________________________________________________________________________________

Pre-chorus
______________________________________________________________________________________________

Beide Guitars:

Eb|--------------------------------------------------------------|
Bb|--------------------------------------------------------------|
Gb|--------------------------------------------------------------|
Db|-8-8-8-8-8-8-8-8-8-8-8-8-8-8-8-8---10-10-10-10-10-10-10-10-10-|
Ab|-8-8-8-8-8-8-8-8-8-8-8-8-8-8-8-8---10-10-10-10-10-10-10-10-10-|
Db|-8-8-8-8-8-8-8-8-8-8-8-8-8-8-8-8---10-10-10-10-10-10-10-10-10-|

______________________________________________________________________________________________

Chorus
______________________________________________________________________________________________

Beide Guitars:

Eb|--------------------------------------------------------------|
Bb|-------3-3-3--------------------------------------------------|
Gb|-------2-2-2--------------------------------------------------|
Db|-0-0---0-0-0---8-8-8-8-8-8-8-8---10-10-10-10-10-10-10-10------| X3
Ab|-0-0---0-0-0---8-8-8-8-8-8-8-8---10-10-10-10-10-10-10-10------|
Db|-0-0---0-0-0---8-8-8-8-8-8-8-8---10-10-10-10-10-10-10-10------|
    * *

Eb|------------------------------------|
Bb|------------------------------------|
Gb|------------------------------------|
Db|-8-8-8-8-8-8-8-8---7-7-7-7-7-7-7----| X3
Ab|-8-8-8-8-8-8-8-8---7-7-7-7-7-7-7----|
Db|-8-8-8-8-8-8-8-8---7-7-7-7-7-7-7----|

______________________________________________________________________________________________

Interlude:
______________________________________________________________________________________________

Guitar 1:

Eb|--------------------------------------------------------------|
Bb|--------------------------------------------------------------|
Gb|--------------------------------------------------------------|  X2
Db|--------------------0-5-7-0-7-8-0-----------------------------|
Ab|-0-3-5-0-5/8-0-8-10-------------------------------------------|
Db|--------------------------------------------------------------|

Guitar 2: (val na 2de keer in)

Eb|--------------------------------------------------------------|
Bb|--------------------------------------------------------------|
Gb|--------------------------------------------------------------|
Db|--------0-5-7-0-7-8-0-8-10-0-10-12-0--------------------------|
Ab|-0-8-10-------------------------------------------------------|
Db|--------------------------------------------------------------|

Guitar 1:

Eb|--------------------------------------------------------------|
Bb|--------------------------------------------------------------|
Gb|--------------------------------------------------------------|  
Db|--------------------------------------------------------------|
Ab|-0-3-5-0-5/8-0-8-10-------------------------------------------|
Db|--------------------------------------------------------------|

Guitar 2:

Eb|--------------------------------------------------------------|
Bb|--------------------------------------------------------------|
Gb|--------------------------------------------------------------|
Db|--------0-5-7-0-7-8-------------------------------------------|
Ab|-0-8-10-------------------------------------------------------|
Db|--------------------------------------------------------------|

______________________________________________________________________________________________

Verse
______________________________________________________________________________________________

Riff 3:

Guitar 1:

Eb|--------------------------------------------------------------|
Bb|--------------------------------------------------------------|
Gb|-----3-2-0-2-0---0----------------0---------------0-----------|  X2
Db|-0-0-----------3---3-2-3-2-0--------3-2-3-2-0-------3-2-3-----|
Ab|------------------------------3-3-------------3---------------|
Db|--------------------------------------------------------------|

Guitar 2:

still
______________________________________________________________________________________________

Chorus
______________________________________________________________________________________________

Beide Guitars:

Eb|--------------------------------------------------------------|
Bb|-------3-3-3--------------------------------------------------|
Gb|-------2-2-2--------------------------------------------------|
Db|-0-0---0-0-0---8-8-8-8-8-8-8-8---10-10-10-10-10-10-10-10------| X3
Ab|-0-0---0-0-0---8-8-8-8-8-8-8-8---10-10-10-10-10-10-10-10------|
Db|-0-0---0-0-0---8-8-8-8-8-8-8-8---10-10-10-10-10-10-10-10------|
    * *

Eb|------------------------------------|
Bb|------------------------------------|
Gb|------------------------------------|
Db|-8-8-8-8-8-8-8-8---7-7-7-7-7-7-7----| X3
Ab|-8-8-8-8-8-8-8-8---7-7-7-7-7-7-7----|
Db|-8-8-8-8-8-8-8-8---7-7-7-7-7-7-7----|

______________________________________________________________________________________________

outro
______________________________________________________________________________________________


Riff 2:

Beide guitars:

Eb|--------------------------------------------------------------|
Bb|--------------------------------------------------------------|
Gb|-------------17-17-17-17-17-17-17-17-17-17--------------------|  X8
Db|-0--0-0------x--x--x--x--x--x--x--x--x--x---------------------|
Ab|-0--0-0------15-15-15-15-15-15-15-15-15-15--------------------|
Db|-0--0-0-------------------------------------------------------|
    *  * *

---------------------------
This file passed through:
       Absolute Tabs
   http://www.tabs.co.za
---------------------------