Guitar tablature for Kinders van die wind by Koos Du Plessis Rating: 3.0 / 5.0
#----------------------------------PLEASE NOTE---------------------------------#
#This file is the author's own work and represents their interpretation of the #
#song. You may only use this file for private study, scholarship, or research. #
#------------------------------------------------------------------------------##

     SONG: Kinders van die wind
   ARTIST: KOOS du Plessis
    ALBUM: -
  WEBSITE: -

     TYPE: Guitar Tablature
TABBED BY: CJ Liebenberg
    EMAIL: chris_liebenwolf@yahoo.com
COMMENTS: Ek het die stuk op gehoor getab so daar mag dalk 'n fout of twee wees.

Volgorde:D1-D2-D1-D2-D3-D1-D2-D3

  D1
e:-------5---9-5-------------
b:-2-5-2---5-----2-3-3-7-7-5-
g:---------------------------
d:---------------------------
a:---------------------------
e:---------------------------

  D2
e:-------5---9-5------------
b:-2-5-2---5-----3-5-5--5---
g:------------------------2-
d:--------------------------
a:--------------------------
e:--------------------------

  D3
e:-5-4-4---4-5-5-7-7-9-------5---9-5-----------
b:-------7-------------2-5-2---5-----3-5-5-5---
g:-------------------------------------------2-
d:---------------------------------------------
a:---------------------------------------------
e:---------------------------------------------




---------------------------
This file passed through:
       Absolute Tabs
   http://www.tabs.co.za
---------------------------