Guitar tablature for Terugveg Tweegeveg by Black Era (tabbed by G3752)
#----------------------------------PLEASE NOTE---------------------------------#
#This file is the author's own work and represents their interpretation of the #
#song. You may only use this file for private study, scholarship, or research. #
#------------------------------------------------------------------------------##

Black Era ft Bouwer Bosch - Terugverg tweegeveg

Die bridge is nie perfek nie

Ek sê Ahoy Daar! Ek is op Twitter! So maak 'n plan en volg die man @GabrielRoux3752

vir enige vrae/of korreksies e-mail my by gabriel3752@yahoo.com

Sleutel:
/: slide
P: pull-off
X: Mute
* palm mute

Intro:

E|-------------------------------|          
B|-------------------------------|         
G|-------------------------------|  X 3    
D|-------------------------------|       
A|-------------------------------|         
e|--9-7-9p7-9p7-9p7-9p7-9p7-9p7--|

E|-------------------------------|
B|-------------------------------|
G|-------------------------------|
D|-------------------------------|
A|-------------------------------|
e|--9-7-9p7-9p7-9p7-9p7-9--------|      

E|--------------------------------------|
B|--------------------------------------|
G|-------------------------9-9-x-8-8----|
D|--x-x-x-7-7-7-7-7-7-7-x--x-x-x-x-x----|
A|--x-x-x-7-7-7-7-7-7-7-x--7-7-x-6-6----|
e|--x-x-x-5-5-5-5-5-5-5-x---------------|

E|-------------------------------|          
B|-------------------------------|         
G|-------------------------------|    
D|-------------------------------|       
A|-------------------------------|         
e|--9-7-9p7-9p7-9p7-9p7-9p7-9p7--|

E|-----------------------------------|
B|-----------------------------------|
G|----------------------9-9-x-11-11--|
D|--x--7-7-7-7-7-7-7-x--x-x-x-x--x---|
A|--x--7-7-7-7-7-7-7-x--7-7-x-9--9---|
e|--x--5-5-5-5-5-5-5-x---------------|

Verse:
                                                           ____
E|-------------------------------------------------------|     |
B|-------------------------------------------------------|     |
G|-6~\--x-4-x-6~\----------------------------------------|     |
D|-6~\--x-4-x-6~\--11-9-7-7-7-7-7-7-7--9-9-9-9-9-9-9-----|     |
A|-4~\--x-2-x-4~\--11-9-7-7-7-7-7-7-7--9-9-9-9-9-9-9-----|     |
e|-----------------9--7-5-5-5-5-5-5-5--7-7-7-7-7-7-7-----|     |
                                                               | X2
E|-------------------------------|                             |
B|-------------------------------|                             |
G|-------------------------------|                             |
D|-------------------------------|                             |
A|-------------------------------|                             |
e|--9-7-9p7-9p7-9p7-9p7-9p7-9p7--|                         ____|

Chorus:

E|----------------------------------------------------------|     
B|----------------------------------------------------------|     
G|----------------------------------------------------------|    
D|-7-7-7-7-7-7-7--9-9-9-9-9-9-9--11-11-11-11-11-11-11-------|     
A|-7-7-7-7-7-7-7--9-9-9-9-9-9-9--11-11-11-11-11-11-11-------|     
e|-5-5-5-5-5-5-5--7-7-7-7-7-7-7--9--9--9--9--9--9--9--------|

E|-----------------------------------------------------|          
B|-----------------------------------------------------|         
G|-13-13-13-13-13--11-9-9-9-9-9-9-9-9--8-8-8-8-8-8-8-8-|    
D|-x--x--x--x--x---x--x-x-x-x-x-x-x-x--x-x-x-x-x-x-x-x-|       
A|-11-11-11-11-11--9--7-7-7-7-7-7-7-7--6-6-6-6-6-6-6-6-|         
e|-----------------------------------------------------|

E|----------------------------------------------------------------|          
B|----------------------------------------------------------------|         
G|---------------------------13-13-13-13-13--11-9-9-9-9-9-9-9-9---|    
D|-11-11-11-11-11-11-11-11---x--x--x--x--x---x--x-x-x-x-x-x-x-x---|       
A|-11-11-11-11-11-11-11-11---11-11-11-11-11--9--7-7-7-7-7-7-7-7---|         
e|-9--9--9--9--9--9--9--9-----------------------------------------|

E|-----------------------------------------------------|          
B|-----------------------------------------------------|         
G|-11-11-11-11-11-11-11-11--13-13-13-13-13-13-13-13----|    
D|-x--x--x--x--x--x--x--x---x--x--x--x--x--x--x--x-----|       
A|-9--9--9--9--9--9--9--9---11-11-11-11-11-11-11-11----|         
e|-----------------------------------------------------|

E|-----------------------------------------------------|          
B|-----------------------------------------------------|         
G|-13-13-13-13-13--11-9-9-9-9-9-9-9-9--8-8-8-8-8-8-8-8-|    
D|-x--x--x--x--x---x--x-x-x-x-x-x-x-x--x-x-x-x-x-x-x-x-|       
A|-11-11-11-11-11--9--7-7-7-7-7-7-7-7--6-6-6-6-6-6-6-6-|         
e|-----------------------------------------------------|

E|-------------------------------|          
B|-------------------------------|         
G|-------------------------------|    
D|-------------------------------|       
A|-------------------------------|         
e|--9-7-9p7-9p7-9p7-9p7-9p7-9p7--|

Verse

                                                           ____
E|-------------------------------------------------------|     |
B|-------------------------------------------------------|     |
G|-6~\--x-4-x-6~\----------------------------------------|     |
D|-6~\--x-4-x-6~\--11-9-7-7-7-7-7-7-7--9-9-9-9-9-9-9-----|     |
A|-4~\--x-2-x-4~\--11-9-7-7-7-7-7-7-7--9-9-9-9-9-9-9-----|     |
e|-----------------9--7-5-5-5-5-5-5-5--7-7-7-7-7-7-7-----|     |
                                                               | X2
E|-------------------------------|                             |
B|-------------------------------|                             |
G|-------------------------------|                             |
D|-------------------------------|                             |
A|-------------------------------|                             |
e|--9-7-9p7-9p7-9p7-9p7-9p7-9p7--|                         ____|

Chorus

E|----------------------------------------------------------|     
B|----------------------------------------------------------|     
G|----------------------------------------------------------|    
D|-7-7-7-7-7-7-7--9-9-9-9-9-9-9--11-11-11-11-11-11-11-------|     
A|-7-7-7-7-7-7-7--9-9-9-9-9-9-9--11-11-11-11-11-11-11-------|     
e|-5-5-5-5-5-5-5--7-7-7-7-7-7-7--9--9--9--9--9--9--9--------|

E|-----------------------------------------------------|          
B|-----------------------------------------------------|         
G|-13-13-13-13-13--11-9-9-9-9-9-9-9-9--8-8-8-8-8-8-8-8-|    
D|-x--x--x--x--x---x--x-x-x-x-x-x-x-x--x-x-x-x-x-x-x-x-|       
A|-11-11-11-11-11--9--7-7-7-7-7-7-7-7--6-6-6-6-6-6-6-6-|         
e|-----------------------------------------------------|

E|----------------------------------------------------------------|          
B|----------------------------------------------------------------|         
G|---------------------------13-13-13-13-13--11-9-9-9-9-9-9-9-9---|    
D|-11-11-11-11-11-11-11-11---x--x--x--x--x---x--x-x-x-x-x-x-x-x---|       
A|-11-11-11-11-11-11-11-11---11-11-11-11-11--9--7-7-7-7-7-7-7-7---|         
e|-9--9--9--9--9--9--9--9-----------------------------------------|

E|-----------------------------------------------------|          
B|-----------------------------------------------------|         
G|-11-11-11-11-11-11-11-11--13-13-13-13-13-13-13-13----|    
D|-x--x--x--x--x--x--x--x---x--x--x--x--x--x--x--x-----|       
A|-9--9--9--9--9--9--9--9---11-11-11-11-11-11-11-11----|         
e|-----------------------------------------------------|

E|---------------------------------------------------------|          
B|---------------------------------------------------------|         
G|-13-13-13-13-13--11-9-9-9-9-9-9-9-9--8-8-8-8-8-8-8-8-----|    
D|-x--x--x--x--x---x--x-x-x-x-x-x-x-x--x-x-x-x-x-x-x-x-----|       
A|-11-11-11-11-11--9--7-7-7-7-7-7-7-7--6-6-6-6-6-6-6-6-----|         
e|---------------------------------------------------------|

Bridge

E|--------------------------------|          
B|--------------------------------|         
G|--------------------------------|    
D|--11~---7~---9~---7~---6~---9~--|       
A|--11~---7~---9~---7~---6~---9~--|         
e|--9-~---5~---7~---5~---4~---7~--|


E|------------------------------------------------------------------|          
B|------------------------------------------------------------------|         
G|-9-9-9-8-8-8-9-9-9-8-8-8-9-9-8-9-11-11-11-9-9-9-11-11-11-9-9-9----|    
D|------------------------------------------------------------------|       
A|------------------------------------------------------------------|         
e|------------------------------------------------------------------|
   * * * * * * * * * * * * * * * * *  *  *  * * * * * * * * * *  
E|------------------------------------------------------------------|          
B|------------------------------------------------------------------|         
G|-9-9-9-8-8-8-9-9-9--11-11-11-9-9-9-8-8-9-9-9--9~--11~--13~-14~----|    
D|------------------------------------------------------------------|       
A|------------------------------------------------------------------|         
e|------------------------------------------------------------------|
   * * * * * * * * *  *  *  *  * * *

Pre solo

E|-------------------------------|          
B|-------------------------------|         
G|-6-6-6-6--9-9-9-9-9-9-9-9-9-9--|     X2
D|-x-x-x-x--x-x-x-x-x-x-x-x-x-x--|       
A|-4-4-4-4--7-7-7-7-7-7-7-7-7-7--|         
e|-------------------------------|

E|----------------------------------------------------------------|          
B|----------------------------------------------------------------|         
G|---------9-9-9-9-9-9-9-9-9-9--8-8-8-8-8-8-8--13-13-13--11-11-11-|    
D|-7-7-7-x-x-x-x-x-x-x-x-x-x-x--x-x-x-x-x-x-x--x--x--x---x--x--x--|       
A|-7-7-7-x-7-7-7-7-7-7-7-7-7-7--6-6-6-6-6-6-6--11-11-11--9--9--9--|         
e|-5-5-5-x--------------------------------------------------------|

E|----------------------------------------|          
B|----------------------------------------|         
G|-6-6-6-6--11-11-11-11-11-11-11-11-11-11-|     X2
D|-x-x-x-x--x--x--x--x--x--x--x--x--x--x--|       
A|-4-4-4-4--9--9--9--9--9--9--9--9--9--9--|         
e|----------------------------------------|

E|----------------------------------------------------------------|          
B|----------------------------------------------------------------|         
G|---------9-9-9-9-9-9-9-9-9-9--8-8-8-8-8-8-8--13-13-13--11-11-11-|    
D|-7-7-7-x-x-x-x-x-x-x-x-x-x-x--x-x-x-x-x-x-x--x--x--x---x--x--x--|       
A|-7-7-7-x-7-7-7-7-7-7-7-7-7-7--6-6-6-6-6-6-6--11-11-11--9--9--9--|         
e|-5-5-5-x--------------------------------------------------------|

E|-------------------------------|          
B|-------------------------------|         
G|-------------------------------|    X2
D|-------------------------------|       
A|-------------------------------|         
e|--9-7-9p7-9p7-9p7-9p7-9p7-9p7--|

Solo
E|-------------------------------------------------------|          
B|-------------------------------------------------------|         
G|-6-9p6-9p6---6--9p6-9p6-6-6-9p6-9p6-9/11-11-11---------| X2   
D|-----------------------------------------------14-13---|       
A|-------------------------------------------------------|         
e|-------------------------------------------------------|

E|----------------------|          
B|----------------------|         
G|-/6-6-9-6-9-6---6-----| X2    
D|--------------9-------|       
A|----------------------|         
e|----------------------|


E|-------------------------------|          
B|---------------------------12--|         
G|-6-6-9-6-9-6-9/11-13-11-13-----|     
D|-------------------------------|       
A|-------------------------------|         
e|-------------------------------|


E|-------------------------------------|          
B|-------------------------------14----|         
G|-/13-13-11----11--/16-16-13-16-------|
D|-----------14------------------------|       
A|-------------------------------------|         
e|-------------------------------------|


E|------------------------|          
B|------------------------|         
G|--/9-6------------------|     
D|-------9~--6------------|       
A|-------------9-7--------|         
e|----------------9-7-9---|  

E|-------------------------------|          
B|-------------------------------|         
G|-------------------------------|    
D|-------------------------------|       
A|-------------------------------|         
e|--9-7-9p7-9p7-9p7-9p7-9p7-9p7--|

tremolo effect

E|-----|          
B|-----|         
G|-----|   
D|-----|       
A|-----|         
e|--9~-|

Chorus

E|----------------------------------------------------------|     
B|----------------------------------------------------------|     
G|----------------------------------------------------------|    
D|-7-7-7-7-7-7-7--9-9-9-9-9-9-9--11-11-11-11-11-11-11-------|     
A|-7-7-7-7-7-7-7--9-9-9-9-9-9-9--11-11-11-11-11-11-11-------|     
e|-5-5-5-5-5-5-5--7-7-7-7-7-7-7--9--9--9--9--9--9--9--------|

E|-----------------------------------------------------|          
B|-----------------------------------------------------|         
G|-13-13-13-13-13--11-9-9-9-9-9-9-9-9--8-8-8-8-8-8-8-8-|    
D|-x--x--x--x--x---x--x-x-x-x-x-x-x-x--x-x-x-x-x-x-x-x-|       
A|-11-11-11-11-11--9--7-7-7-7-7-7-7-7--6-6-6-6-6-6-6-6-|         
e|-----------------------------------------------------|

E|----------------------------------------------------------------|          
B|----------------------------------------------------------------|         
G|---------------------------13-13-13-13-13--11-9-9-9-9-9-9-9-9---|    
D|-11-11-11-11-11-11-11-11---x--x--x--x--x---x--x-x-x-x-x-x-x-x---|       
A|-11-11-11-11-11-11-11-11---11-11-11-11-11--9--7-7-7-7-7-7-7-7---|         
e|-9--9--9--9--9--9--9--9-----------------------------------------|

E|-----------------------------------------------------|          
B|-----------------------------------------------------|         
G|-11-11-11-11-11-11-11-11--13-13-13-13-13-13-13-13----|    
D|-x--x--x--x--x--x--x--x---x--x--x--x--x--x--x--x-----|       
A|-9--9--9--9--9--9--9--9---11-11-11-11-11-11-11-11----|         
e|-----------------------------------------------------|

E|---------------------------------------------------------|          
B|---------------------------------------------------------|         
G|-13-13-13-13-13--11-9-9-9-9-9-9-9-9--8-8-8-8-8-8-8-8-----|    
D|-x--x--x--x--x---x--x-x-x-x-x-x-x-x--x-x-x-x-x-x-x-x-----|       
A|-11-11-11-11-11--9--7-7-7-7-7-7-7-7--6-6-6-6-6-6-6-6-----|         
e|---------------------------------------------------------|

Outro:


E|-------------------------------|          
B|-------------------------------|         
G|-------------------------------|    
D|-------------------------------|       
A|-------------------------------|         
e|--9-7-9p7-9p7-9p7-9p7-9p7-9p7--|


E|-------------------------------------------|          
B|-------------------------------------------|         
G|-------------------------------------------|    
D|-------------------------------------------|       
A|-11-9-11p9-11p9-11p9-11p9-11p9-11p9--------|         
e|-------------------------------------------|

E|-------------------------------------------|          
B|-------------------------------------------|         
G|-------------------------------------------|    
D|--11-9-11p9-11p9-11p9-11p9-11p9-11p9-------|       
A|-------------------------------------------|         
e|-------------------------------------------|


E|--------------------------------------------------|          
B|--14-12-14p12-14p12-14p12-14p12-14p12-14p12-14~---|         
G|--------------------------------------------------|   
D|--------------------------------------------------|       
A|--------------------------------------------------|         
e|--------------------------------------------------|

---------------------------
This file passed through:
       Absolute Tabs
   http://www.tabs.co.za
---------------------------