Guitar tablature for Hemel Op Die Platteland by Fokofpolisiekar
Fokofpolisiekar - Hemel Op Die Platteland
Tab deur : Rohan B�chner                 {FatOblivion@hotmail.com}
tuning : standard (eadgbe)


                                    INTRO 1
===============================================================================
intro (deel 1)
--------------------------|-------------------|
--------------------------|-------------------|
--------------------------|-------------------|
--7--7--7--7--7--7--7--7--|--7--7--7--7--7--7-|       herhaal soos nodig
--7--7--7--7--7--7--7--7--|--7--7--7--7--7--7-|
--5--5--5--5--5--5--5--5--|--5--5--5--5--5--5-|
     m  m     m  m  m  m     m  m  m  m  m  m
                        
                                   ^

                   (begin jou hand effens lig hier, d.w.s mute die snare minder hier rond)
                                                     
---------------------|
---------------------|
-------5--5----------|
-3--3--5--5--5-------|
-3--3--3--3--5-------|
-1--1--------3-------|



intro (deel 2)
------------------------------------------------
------------------------------------------------
------------------------------------------------
------------7--7--7--7--7--7--7--7--7--7--7--7--   herhaal soos nodig
------------7--7--7--7--7--7--7--7--7--7--7--7--
-0-3-0-2/5--5--5--5--5--5--5--5--5--5--5--5--5--
            m  m     m  m     m  


------------------------|
------------------------|
-------5--5-------------|
-3--3--5--5--5-----5hx--|
-3--3--3--3--5-----5hx--|
-1--1--------3-----3hx--|
                   ^
die is slegs hier om die klank te stop, d.w.s nadat jy die noot speel hou jou
   fingers op die snare maar los die druk  (dead note)
============================================================================

                                  INTRO 2
============================================================================

--------------------------------------------------------------------------
-------------------------------------------------x--x--5------------------
------------x--x--5------------------------------x--x--5------------------
--x--x--7---x--x--5---x--x--5------x--x--7---9---x--x--3--x--x--5---------
--x--x--7---x--x--3---x--x--5------x--x--7---7------------x--x--5---------
--x--x--5-------------x--x--3------x--x--5---5------------x--x--3---------
        X16      X7        X7            X8  X8        X7      X7


dead notes word  ^v (op af) gestrum, maar die chords self word alles afwaarts gestum!
                        (let wel dead notes slegs tussen die chord changes)
die dead notes word baie vinnig gespeel maar dit kan uitgelos word (ek dink net dit klink goed)

============================================================================

hoeveelheid keer wat gestum word word in die meeste gevalle nie gegee nie, behalwe by
of dead notes  (x)  of palm mutes (m)

                        Kan jy my skroewe vir my vasdraai      
-----------------------------------------------------
-----------------------------------------------------
-----------------------------------------------------
--x--x--7--------------------------------------------
--x--x--7--------------------------------------------
--x--x--5--------------------------------------------

-----------------------------------------------------
-----------------------------------------------------
---5~~~~~~~~~~~~~~~~~~~~~~~~~~-----------------------
---5~~~~~~~~~~~~~~~~~~~~~~~~~~---5-5-----------------
---3~~~~~~~~~~~~~~~~~~~~~~~~~~---5-5-----------------
---------------------------------3-3-----------------
                                 m m

                       Kan jy my albasters, vir my vind
-----------------------------------------------------
-----------------------------------------------------
-----------------------------------------------------
---7-------------------------------------------------
---7-------------------------------------------------
---5-------------------------------------------------

-----------------------------------------------------
-----------------------------------------------------
---5-------------------------------------------------
---5-----------------------------5-5-5-5-5-5-5-5-5---
---3-----------------------------5-5-5-5-5-5-5-5-5---
---------------------------------3-3-3-3-3-3-3-3-3---
                                   m m   m m m m m         

Kan jy jou idee van normaal by jou gat opdruk
-------------------------
-------------------------
--5--5--5--5--5--5--5--5-
--5--5--5--5--5--5--5--5-
--3--3--3--3--3--3--3--3-
-------------------------

kan jy... kan jy apatie spel?                                                     
------------------------------------------------|
------------------------------------------------|
------------------------------------------------|
-5--3--3--3--3--3--3--3--5--5--5--5--5--5--5--5-|
-5--3--3--3--3--3--3--3--5--5--5--5--5--5--5--5-|
-3--1--1--1--1--1--1--1--3--3--3--3--3--3--3--3-|

                Kan iemand dalk 'n
--------------------------------------------------|
--------------------------------------------------|
--------------------------------------------------|
--7--7--7--7--7--7--7--7--7--7--7--7--7--7--7--7--|
--7--7--7--7--7--7--7--7--7--7--7--7--7--7--7--7--|
--5--5--5--5--5--5--5--5--5--5--5--5--5--5--5--5--|
        m  m  m  m  m  m  m  m  m  m  m  m  m  m

  god bel..                                                     
--------------------------------------------------|
--------------------------------------------------|
--5--5--5--5--5--5--5--5-----------------------5--|
--5--5--5--5--5--5--5--5--5--5--5--5--5--5--5--5--|
--3--3--3--3--3--3--3--3--5--5--5--5--5--5--5--3--|
--------------------------3--3--3--3--3--3--3-----|
  m  m  m  m  m  m  m  m        m  m        m

   en vir hom s� on het hom nie meer nodig nie
-------------------------
-------------------------
--5--5--5--5--5--5--5--5-  
--5--5--5--5--5--5--5--5-
--3--3--3--3--3--3--3--3-
-------------------------

kan jy... kan jy apatie spel?                                                     
------------------------------------------------|
------------------------------------------------|
------------------------------------------------|
-5--3--3--3--3--3--3--3--5--5--5--5--5--5--5--5-|
-5--3--3--3--3--3--3--3--5--5--5--5--5--5--5--5-|
-3--1--1--1--1--1--1--1--3--3--3--3--3--3--3--3-|

   Reguleer my roetineer my                        Plaas my in 'n boks          
--------------------------------------------------------------------------|
--------------------------------------------------------------------------|
--5--5--5--5--5--5--5--5--5--5--5--5--5--5--5-----------------------------|
--5--5--5--5--5--5--5--5--5--5--5--5--5--5--5--5--3--3--3--3--3--3--3--3--|
--3--3--3--3--3--3--3--3--3--3--3--3--3--3--3--5--3--3--3--3--3--3--3--3--|
-----------------------------------------------3--1--1--1--1--1--1--1--1--|

en merk dit veilig                                                   
--------------------------------------------------|
--------------------------------------------------|
-----------------------------------------------5--|
--7--7--7--7--7--7--7--7--5--5--5--5--5--5--5--5--|
--7--7--7--7--7--7--7--7--5--5--5--5--5--5--5--3--|
--5--5--5--5--5--5--5--5--3--3--3--3--3--3--3-----|
  m  m        m  m        m  m        m  m    

  stuur my dan waarheen al die dose gaan
---------------------------------------------------|
---------------------------------------------------|
--5--5--5--5--5--5--5--5--5--5--5--5--5--5---------|
--5--5--5--5--5--5--5--5--5--5--5--5--5--5---5--3--|
--3--3--3--3--3--3--3--3--3--3--3--3--3--3---5--3--|
---------------------------------------------3--1--|


  stuur my hemel toe                  ek dink dis in die platteland                                   
--------------------------------------------------------|
--------------------------------------------------------|
--------------------------------------------------------|
--3--3--3--3--3--3--3--3--3--3--3--3--5--5--5--5--5--5--|
--3--3--3--3--3--3--3--3--3--3--3--3--5--5--5--5--5--5--|
--1--1--1--1--1--1--1--1--1--1--1--1--3--3--3--3--3--3--|


Die solo rythm is net 'n variasie van daardie 4 chords
geniet die tab, Fokofpolisiekar rocks!
Voel vry om die solo by te voeg, ek werk nog daar aan