Bass tablature for Get some by Soil7t7
#----------------------------------PLEASE NOTE---------------------------------#
#This file is the author's own work and represents their interpretation of the #
#song. You may only use this file for private study, scholarship, or research. #
#------------------------------------------------------------------------------##

     SONG: Get Some
   ARTIST: Soil 7t7
    ALBUM: Soil 7t7
  WEBSITE: www.soil7t7.com

     TYPE: Bass Tablature
TABBED BY: Nik Felbab
    EMAIL: rolling_monkey@hotmail.com
COMMENTS: I'm sure that the verse/chorus bit is right. Not too sure about
           the bridge. Jay uses a 5-string. I don't, so I've tabbed it as best I
           could on a 4-string. Maybe the bridge uses the B string, but it sounds
           decent the way I've tabbed it out. Enjoy!


VERSE/CHORUS

G|-------------|
D|---3-2-------|
A|-------3-2---|
E|-0---------3-|

BRIDGE

G|-----------------|----------------|-----------------|-----------------|
D|-------------3-2-|----------------|-------------3-2-|---------3-2-----|
A|-----------------|----------------|-----------------|-------------3-2-|
E|-0-3-3-0-3-2-----|0-3-3-0-3-2-3-2-|-0-3-3-0-3-2-----|-0-3-3-0---------|



---------------------------
This file passed through:
       Absolute Tabs
   http://www.tabs.co.za
---------------------------