Guitar tablature for Why Say Goodnight (bonus track) by Downfall (tabbed by Nevay)
#----------------------------------PLEASE NOTE---------------------------------#
#This file is the author's own work and represents their interpretation of the #
#song. You may only use this file for private study, scholarship, or research. #
#------------------------------------------------------------------------------##

TEMPO: 61bpm
INTRO
3|-----------6h7--7-7-7------------------------------
4|-0--0-0-0--0----0-0-0--11--11-11-11-11h12-12-12-12-
5|-0--0-0-0--0----0-0-0--9---9--9--9--9-----9--9--9--
6|-0--0-0-0--------------9---9--9--9--9-----9--9--9--

4|-4--4-4-4-6h7--7-7-7-4--4-4-4-7p6-6--6-6-|
5|-4--4-4-4-4----4-4-4-4--4-4-4-4---7--7-7-|
6|-4--4-4-4-4----4-4-4-4--4-4-4-4---4--4-4-|

3|-----------6h7--7-7-7------------------------------
4|-0--0-0-0--0----0-0-0--11--11-11-11-11h12-12-12-12-
5|-0--0-0-0--0----0-0-0--9---9--9--9--9-----9--9--9--
6|-0--0-0-0--------------9---9--9--9--9-----9--9--9--

                                |-dist
4|-4--4-4-4-6h7--7-7-7-4--4-4-4----------|
5|-4--4-4-4-4----4-4-4-4--4-4-4-444444444|
6|-4--4-4-4-4----4-4-4-4--4-4-4-444444444|
                                .........

3|-----------6/7--7-7-7------------------------------
4|-0--0-0-0--x----x-x-x--11--11-11-11-11h12-12-12-12-
5|-0--0-0-0--4/5--5-5-5--9---9--9--9--9-----9--9--9--
6|-0--0-0-0--------------9---9--9--9--9-----9--9--9--

4|-4--4-4-4-6h7--7-7-7-4--4-4-4-7p6-6--6-6-|
5|-4--4-4-4-4----4-4-4-4--4-4-4-4---7--7-7-|
6|-4--4-4-4-4----4-4-4-4--4-4-4-4---4--4-4-|

3|-----------6/7--7-7-7---------------------------------|
4|-0--0-0-0--x----x-x-x--11--11-11-11-11h12 (let ring) -|
5|-0--0-0-0--4/5--5-5-5--9---9--9--9--9-----------------|
6|-0--0-0-0--------------9---9--9--9--9-----------------|

4|-2-x-2-x-2-2/4-6-6-6-6--6-6-6-6/7--7-7-7-|
5|-2-x-2-x-2-2/4-4-4-4-4--4-4-4-4/5--5-5-5-|
6|-2-x-2-x-2-2/4-4-4-4-4--4-4-4-4/5--5-5-5-|
     .   .  

3|---------------------6--6-6-6-6/7--7-7-7-|
4|-2-x-2-x-2-2/4-6-6-6-4--4-4-4-4/5--5-5-5-|
5|-2-x-2-x-2-2/4-4-4-4-4--4-4-4-4/5--5-5-5-|
6|-2-x-2-x-2-2/4-4-4-4-4--4-4-4-4/5--5-5-5-|
     .   .

4|-2-x-2-x-2-2/4-6-6-6-6--6-6-6-6/7--7-7-7-|
5|-2-x-2-x-2-2/4-4-4-4-4--4-4-4-4/5--5-5-5-|
6|-2-x-2-x-2-2/4-4-4-4-4--4-4-4-4/5--5-5-5-|
     .   .  

3|---------------------6--6-6-6-6/7--7-7-7-6--6--6-6-|
4|-2-x-2-x-2-2/4-6-6-6-4--4-4-4-4/5--5-5-5-5--5--5-5-|
5|-2-x-2-x-2-2/4-4-4-4-4--4-4-4-4/5--5-5-5-5--5--5-5-|
6|-2-x-2-x-2-2/4-4-4-4-4--4-4-4-4/5--5-5-5-5--5--5-5-|
     .   .

PRE-VERSE
3|-----------6/7--7-7-7------------------------------
4|-0--0-0-0--x----x-x-x--11--11-11-11-11h12-12-12-12-
5|-0--0-0-0--4/5--5-5-5--9---9--9--9--9-----9--9--9--
6|-0--0-0-0--------------9---9--9--9--9-----9--9--9--

4|-4--4-4-4-6h7--7-7-7-4--4-4-4-7p6-6--6-6-|
5|-4--4-4-4-4----4-4-4-4--4-4-4-4---7--7-7-|
6|-4--4-4-4-4----4-4-4-4--4-4-4-4---4--4-4-|

3|-----------6h7--7-7-7------------------------------
4|-0--0-0-0--0----0-0-0--11--11-11-11-11h12-12-12-12-
5|-0--0-0-0--4/5--5-5-5--9---9--9--9--9-----9--9--9--
6|-0--0-0-0--------------9---9--9--9--9-----9--9--9--

|-clean
4|-4--4-4-4-6h7--7-7-7-4--4-4-4-7p6-6--6-6-|
5|-4--4-4-4-4----4-4-4-4--4-4-4-4---7--7-7-|
6|-4--4-4-4-4----4-4-4-4--4-4-4-4---4--4-4-|

VERSE
3|-----------6h7--7-7-7------------------------------
4|-0--0-0-0--0----0-0-0--11--11-11-11-11h12-12-12-12-
5|-0--0-0-0--0----0-0-0--9---9--9--9--9-----9--9--9--
6|-0--0-0-0--------------9---9--9--9--9-----9--9--9--

4|-4--4-4-4-6h7--7-7-7-4--4-4-4-7p6-6--6-6-|
5|-4--4-4-4-4----4-4-4-4--4-4-4-4---7--7-7-|
6|-4--4-4-4-4----4-4-4-4--4-4-4-4---4--4-4-|

3|-----------6h7--7-7-7------------------------------
4|-0--0-0-0--0----0-0-0--11--11-11-11-11h12-12-12-12-
5|-0--0-0-0--0----0-0-0--9---9--9--9--9-----9--9--9--
6|-0--0-0-0--------------9---9--9--9--9-----9--9--9--

                                |-dist
4|-4--4-4-4-6h7--7-7-7-4--4-4-4----------|
5|-4--4-4-4-4----4-4-4-4--4-4-4-444444444|
6|-4--4-4-4-4----4-4-4-4--4-4-4-444444444|
                                .........

3|-----------6/7--7-7-7------------------------------
4|-0--0-0-0--x----x-x-x--11--11-11-11-11h12-12-12-12-
5|-0--0-0-0--4/5--5-5-5--9---9--9--9--9-----9--9--9--
6|-0--0-0-0--------------9---9--9--9--9-----9--9--9--

4|-4--4-4-4-6h7--7-7-7-4--4-4-4-7p6-6--6-6-|
5|-4--4-4-4-4----4-4-4-4--4-4-4-4---7--7-7-|
6|-4--4-4-4-4----4-4-4-4--4-4-4-4---4--4-4-|

3|-----------6/7--7-7-7---------------------------------|
4|-0--0-0-0--x----x-x-x--11--11-11-11-11h12 (let ring) -|
5|-0--0-0-0--4/5--5-5-5--9---9--9--9--9-----------------|
6|-0--0-0-0--------------9---9--9--9--9-----------------|

CHORUS
4|-2-x-2-x-2-2/4-6-6-6-6--6-6-6-6/7--7-7-7-|
5|-2-x-2-x-2-2/4-4-4-4-4--4-4-4-4/5--5-5-5-|
6|-2-x-2-x-2-2/4-4-4-4-4--4-4-4-4/5--5-5-5-|
     .   .  

3|---------------------6--6-6-6-6/7--7-7-7-|
4|-2-x-2-x-2-2/4-6-6-6-4--4-4-4-4/5--5-5-5-|
5|-2-x-2-x-2-2/4-4-4-4-4--4-4-4-4/5--5-5-5-|
6|-2-x-2-x-2-2/4-4-4-4-4--4-4-4-4/5--5-5-5-|
     .   .

4|-2-x-2-x-2-2/4-6-6-6-6--6-6-6-6/7--7-7-7-|
5|-2-x-2-x-2-2/4-4-4-4-4--4-4-4-4/5--5-5-5-|
6|-2-x-2-x-2-2/4-4-4-4-4--4-4-4-4/5--5-5-5-|
     .   .  

3|---------------------6--6-6-6-6/7--7-7-7-6--6--6-6-|
4|-2-x-2-x-2-2/4-6-6-6-4--4-4-4-4/5--5-5-5-5--5--5-5-|
5|-2-x-2-x-2-2/4-4-4-4-4--4-4-4-4/5--5-5-5-5--5--5-5-|
6|-2-x-2-x-2-2/4-4-4-4-4--4-4-4-4/5--5-5-5-5--5--5-5-|
     .   .

PRE-VERSE
3|-----------6/7--7-7-7------------------------------
4|-0--0-0-0--x----x-x-x--11--11-11-11-11h12-12-12-12-
5|-0--0-0-0--4/5--5-5-5--9---9--9--9--9-----9--9--9--
6|-0--0-0-0--------------9---9--9--9--9-----9--9--9--

4|-4--4-4-4-6h7--7-7-7-4--4-4-4-7p6-6--6-6-|
5|-4--4-4-4-4----4-4-4-4--4-4-4-4---7--7-7-|
6|-4--4-4-4-4----4-4-4-4--4-4-4-4---4--4-4-|

3|-----------6h7--7-7-7------------------------------
4|-0--0-0-0--0----0-0-0--11--11-11-11-11h12-12-12-12-
5|-0--0-0-0--4/5--5-5-5--9---9--9--9--9-----9--9--9--
6|-0--0-0-0--------------9---9--9--9--9-----9--9--9--

BRIDGE
5|-4-4--4--4-|
6|-4-4--4--4-| x4
   . .  .  .

4|-0--0-0-0--0--0--0--11--11-11-11--11--11--11--4--4-4-4--4--4--4--4--4-4-4--4-4-4--4-|
5|-0--0-0-0--0--0--0--9---9--9--9---9---9---9---4--4-4-4--4--4--4--4--4-4-4--4-4-4--4-|
6|-0--0-0-0--0--0--0--9---9--9--9---9---9---9---4--4-4-4--4--4--4--4--4-4-4--4-4-4--4-| x2

4|-0--0-0-0--0--0--0--11--11-11-11--11--11--11-
5|-0--0-0-0--0--0--0--9---9--9--9---9---9---9--
6|-0--0-0-0--0--0--0--9---9--9--9---9---9---9--

CHORUS
4|-2-x-2-x-2-2/4-6-6-6-6--6-6-6-6/7--7-7-7-|
5|-2-x-2-x-2-2/4-4-4-4-4--4-4-4-4/5--5-5-5-|
6|-2-x-2-x-2-2/4-4-4-4-4--4-4-4-4/5--5-5-5-|
     .   .  

3|---------------------6--6-6-6-6/7--7-7-7-|
4|-2-x-2-x-2-2/4-6-6-6-4--4-4-4-4/5--5-5-5-|
5|-2-x-2-x-2-2/4-4-4-4-4--4-4-4-4/5--5-5-5-|
6|-2-x-2-x-2-2/4-4-4-4-4--4-4-4-4/5--5-5-5-|
     .   .

4|-2-x-2-x-2-2/4-6-6-6-6--6-6-6-6/7--7-7-7-|
5|-2-x-2-x-2-2/4-4-4-4-4--4-4-4-4/5--5-5-5-|
6|-2-x-2-x-2-2/4-4-4-4-4--4-4-4-4/5--5-5-5-|
     .   .  

3|---------------------6--6-6-6-6/7--7-7-7-6--6--6-6-|
4|-2-x-2-x-2-2/4-6-6-6-4--4-4-4-4/5--5-5-5-5--5--5-5-|
5|-2-x-2-x-2-2/4-4-4-4-4--4-4-4-4/5--5-5-5-5--5--5-5-|
6|-2-x-2-x-2-2/4-4-4-4-4--4-4-4-4/5--5-5-5-5--5--5-5-|
     .   .
3|-----------6/7--7-7-7------------------------------
4|-0--0-0-0--x----x-x-x--11--11-11-11-11h12-12-12-12-
5|-0--0-0-0--4/5--5-5-5--9---9--9--9--9-----9--9--9--
6|-0--0-0-0--------------9---9--9--9--9-----9--9--9--

4|-4--4-4-4-6h7--7-7-7-4--4-4-4-7p6-6--6-6-|
5|-4--4-4-4-4----4-4-4-4--4-4-4-4---7--7-7-|
6|-4--4-4-4-4----4-4-4-4--4-4-4-4---4--4-4-|

3|-----------6h7--7-7-7------------------------------
4|-0--0-0-0--x----x-x-x--11--11-11-11-11h12-12-12-12-
5|-0--0-0-0--4/5--5-5-5--9---9--9--9--9-----9--9--9--
6|-0--0-0-0--------------9---9--9--9--9-----9--9--9--

5|-4-4--4--4-|
6|-4-4--4--4-| x3
   . .  .  .

3|-7--7-7-7-6-|
4|-5--5-5-5-5-|
5|-5--5-5-5-5-|
6|-5--5-5-5-5-|

---------------------------
This file passed through:
       Absolute Tabs
   http://www.tabs.co.za
---------------------------