Guitar tablature for Planet Nowhere by Lithium
#----------------------------------PLEASE NOTE---------------------------------#
#This file is the author's own work and represents their interpretation of the #
#song. You may only use this file for private study, scholarship, or research. #
#------------------------------------------------------------------------------##

Lithium - Planet Nowhere
Album : Zennon Supertroopers
Tabbed by : Shaun Pretorius

Main Riff:
    C         B        E        A
E-----------------------------------
B-----------------------------------
G-5-5-5-5--4-4-4-4-----------2-2-2-2
D-5-5-5-5--4-4-4-4--2-2-2-2--2-2-2-2
A-3-3-3-3--2-2-2-2--2-2-2-2--0-0-0-0
E-------------------0-0-0-0---------

Chorus: {The same riff..just listen to the track for timing}
    C         B        E        A
E-----------------------------------
B-----------------------------------
G-5-5-5-5--4-4-4-4-----------2-2-2-2
D-5-5-5-5--4-4-4-4--2-2-2-2--2-2-2-2
A-3-3-3-3--2-2-2-2--2-2-2-2--0-0-0-0
E-------------------0-0-0-0---------


---------------------------
This file passed through:
       Absolute Tabs
   http://www.tabs.co.za
---------------------------