Guitar tablature for Sielswartgat by Fokofpolisiekar
#----------------------------------PLEASE NOTE---------------------------------#
#This file is the author's own work and represents their interpretation of the-#
#song. You may only use this file for private study, scholarship, or research.-#
#------------------------------------------------------------------------------#

Fokofpolisiekar - Sielswartgat
Album : Lugsteuring
Tabbed by : Rohan B�chner
e-mail : FatOblivion@hotmail.com
Note : Die tab is ongelooflik deurmekaar, en onvolledig.
       Maar ek sien nie iemand anders dit probeer tab nie.

/ = slide
m = palm mute
h = hammer on
* = natural harmonic

Intro
e-------------------------------
b-------------------------------
g--4/11/12/4/11/12/3/4/7/9------
d--x--x--x-x--x--x-x-x-x-x------
a--2/-9/10/2/-9/10/5/2/5/7------
e-------------------------------
   ^       ^       ^ ^ ^ ^    Die chords met ^ gemerk word meer as 1 keer gespeel
                                 (luister die song om uit te vind hoeveel keer)

Verse
[Guitar 1] - strum 1 keer
e-----0-------0----------
b-8---0-------0----------
g-9---9----4--11--------     Ek dink [guitar 2] pick daai akoorde
d-9---10---5--12--------     as jy mooi na die cd luister.
a-7---10---5--12--------
e-----8----3--10--------
                          
                          

                    V - van daar af kort nog werk (nog chords)
e-------------------------------------------------
b-------------------------------------------------
g--9/12/11/7/12/11/5--2---------------------------
d--x--x--x-x--x--x-x--2-5-2-----------------------
a--7/10/-9/5/10/-9/3--0-5-2-----------------------
e-----------------------3-0-----------------------
   ^       ^       ^  ^ ^      Die chords met ^ gemerk word meer as 1 keer gespeel
                                 (luister die song om uit te vind hoeveel keer)



Solo
[b.t.w die solo is dalk verkeerd in somigge dele
   maar as jy dit kan verbeter voel vry om dit te doen]

1ste keer slegs 1 guitar, 2de keer albei
e--------------------------------------------------
b--------------------------------------------------
g---------------------------7----------------------
d------5h7-7/9-7-5-4-5-2------9-7-5-7h9-7-5--------
a--5h7--------------------------------------7------
e--------------------------------------------------   


   Hier kort nog iets (ek dink dis iets met b)
e--------------------------------------------
b--------------------------------------------
g--------------------------------------------
d--------------------------------------------
a--------------------------------------------
e--------------------------------------------


e--------------------------------------
b----8---8-8----8----------------------
g--------------------------------------
d--9---9-----9------9/12---------------
a--------------------------------------
e--------------------------------------
                    ^
                      Kort nog werk van hier af
        (deel bestaan uit 3 chords maar ek kon net die een uitfiggure)


e--------------------------------------
b--------------------------------------
g-----------9-x-x-x-9------------------
d------5h7--9-x-x-x-9--10-x-x-x-10-----
a--5h7------7-x-x-x-7--10-x-x-x-10-----
e-----------7-x-x-x-7--8--x-x-x-8------
            ^ ^ v ^ v  ^  ^ v ^ v      (strumming patroon min of meer)  
            .........  ..........
               X4         X4
           \...................../
             Herhaal soos nodig

Solo [met extra by]
e----------------------------------------------------------
b----------------------------------------------------------
g---------------------------7------------------------------
d------5h7-7/9-7-5-4-5-2------9-7-5-7h9-7-5---2-2-2-2-2-2-2
a--5h7----------------------------------------2-2-2-2-2-2-2
e---------------------------------------------0-0-0-0-0-0-0
                                                  m   m

e--x-x-x----------------------------12*--------0-----------------------
b--x-x-x----------------------------12*--------0-----------------------
g--x-x-x-10/11-11/12--4-4-4-4-4-4-4------11-12-9---8--------9-------4--
d---------------------5-5-5-5-5-5-5------------10--9--------9--10-5-4--
a---------------------5-5-5-5-5-5-5------------10--9--------7--10-5-2--
e---------------------3-3-3-3-3-3-3------------8---7---8-10----8--3----
                         m   m                              ^  ^  ^ ^   die met ^ strum 1 keer


  ''..vir hierdie moerse.....''
e------------------------------------------------------
b------------------------------------------------------
g------------------5-5-5-5-5-5-5-5---------------------
d-2-2-2-2-2-2-2-2--5-5-5-5-5-5-5-5---------------------
a-2-2-2-2-2-2-2-2--3-3-3-3-3-3-3-3---------------------
e-0-0-0-0-0-0-0-0--------------------------------------

---------------------------
This file passed through:
       Absolute Tabs
   http://www.tabs.co.za
---------------------------