Bass tablature for Antibiotika by Fokofpolisiekar (tabbed by crumpuppet)
#----------------------------------PLEASE NOTE---------------------------------#
#This file is the author's own work and represents their interpretation of the #
#song. You may only use this file for private study, scholarship, or research. #
#------------------------------------------------------------------------------##

Tab deur Hannes van Zyl


(0:06) intro
G|----------------------------------------|
D|----------------------------------------|
A|----------x-33-----------3337-775-552/--|
D|-2-x-55-2------2-x--555-----------------|


(0:17)
G|------------------------------------------------------------------------------------------|
D|------------------------------------------------------------------------------------------|
A|-777777-7777-7777-77557-7777-7777-7777-77557-----------5555-5555--755-755-75--755-755-75--|
D|---------------------------------------------7777-7777------------------------------------|


(0:28) vers
G|--------------------------------------------------------------------|
D|--------------------------------------------------------------------|
A|-----------------------------------------5-5-5-5--------------------|
D|-2-2-2-2-2-2-2-2-2-2-2-2-2-2-2-2-7-7-7-7---------2-2-2-2-2-2-2-2----|

G|------------------------------------------------------------------|
D|------------------------------------------------------------------|
A|-777777-7777-7777-77557-7777-7777-7777-77557-----------5555-5555--|
D|---------------------------------------------7777-7777------------|

"...wie se harsings hard en stowwerig is!"
G|-------------------------|
D|-------------------------|
A|-75-75-75-75-75-75-75-75-|
D|-------------------------|

(0:51) "mik vir my hart"
G|-----------------------------------------------------------------------------|
D|-----------------------------------------------------------------------------|
A|-3-33-3333-------------------------------3-33-3333-5-55-5555-7-7--7--777777--|
D|-----------7-77--4-44--22-2-2-2-2-2-2----------------------------------------|

G|-----------------------------------------------------------------------------|
D|-----------------------------------------------------------------------------|
A|-3-33-3333-------------------------------3-33-3333-5-55-5555-7-7--7--777777--|
D|-----------7-77--4-44--22-2-2-2-2-2-2----------------------------------------|


(1:14)
G|------------------------------|
D|------------------------------|
A|-----------------3337-775-552-|
D|-2-2-2-2-2-2-55---------------|



(1:20) vers 2 "dis die waarheid..."

G|--------------------------------------------------------------------|
D|--------------------------------------------------------------------|
A|-----------------------------------------5-5-5-5--------------------|
D|-2-2-2-2-2-2-2-2-2-2-2-2-2-2-2-2-7-7-7-7---------2-2-2-2-2-2-2-2----|

G|------------------------------------------------------------------|
D|------------------------------------------------------------------|
A|-777777-7777-7777-77557-7777-7777-7777-77557-----------5555-5555--|
D|---------------------------------------------7777-7777------------|

"...as jou hande altyd vasgebind is"
G|-------------------------|
D|-------------------------|
A|-75-75-75-75-75-75-75-75-|
D|-------------------------|

(1:41) "mik vir my hart"
G|-----------------------------------------------------------------------------|
D|-----------------------------------------------------------------------------|
A|-3-33-3333-------------------------------3-33-3333-5-55-5555-7-7--7--777777--|
D|-----------7-77--4-44--22-2-2-2-2-2-2----------------------------------------|

G|-----------------------------------------------------------------------------|
D|-----------------------------------------------------------------------------|
A|-3-33-3333-------------------------------3-33-3333-5-55-5555-7-7--7--777777--|
D|-----------7-77--4-44--22-2-2-2-2-2-2----------------------------------------|


(2:04)
G|--------------------------------------------------------------|
D|--------------------------------------------------------------|
A|-3-33-3333-------------------------------3-33-3333------------|
D|-----------7-77--4-44--2-x-2-x-2-x-2-2--------------5-55-5555-|

G|------------------------------------------|
D|------------------------------------------|
A|-75-75-75-75-75-75-75---------------------|
D|----------------------2222-2222-2222-2222-|

(paar sekondes stilte vir bass)

(2:26)
G|-------------------------|
D|-------------------------|
A|-75-75-75-75-75-75-75-75-|
D|-------------------------|

G|----------------------------------------------------------------------------------|
D|----------------------------------------------------------------------------------|
A|-3-33-3333-------------------------------3-33-3333-5-55-5555-3333-3333-5555-5555--|
D|-----------7-77--4-44--22-2-2-2-2-2-2---------------------------------------------|

(2:40)
G|--------------------------------|
D|--------------------------------|
A|-75-75-75-75-75-75-75-----------|
D|----------------------2222-2222-|

---------------------------
This file passed through:
       Absolute Tabs
   http://www.tabs.co.za
---------------------------