Guitar tablature for Paradise in summertime by Just Jinger
#----------------------------------PLEASE NOTE---------------------------------#
#This file is the author's own work and represents their interpretation of the #
#song. You may only use this file for private study, scholarship, or research. #
#------------------------------------------------------------------------------#

From: pdw@horizon.co.za
Sent: 17 September 1998 06:15 PM

Subject: SUBMITTED: JUST JINGER TABS

From: PDW@HORIZON.CO.ZA
Date: 13-Sept-1998
Subj: Paradise in summertime

Artist       :     Just Jinger
Song Title : Paradise in Summertime (Song Number 2)
Album  : Something for now
Transcriber : Neil de Weerdt
Submittor : Neil de Weerdt

(F5, A5, D5, C5)(POWER CHORDS)

e:-------------------------------
B:-------------------------------
G:-------------------------------
D:---3----3----/7----7-----------
A:---3----3----/7----7-----------
E:---1----1----/5----5-----------

e:-------------------------------
B:-------------------------------
G:---7--7--7----/5---------------
D:---7--7--7----/5---------------
A:---5--X--5----/3---------------
E:-------------------------------


Something like the all the way throw out the song except for chores
IF you anyone got the whole version please e-mail to me
Or any other Just Jinger songs.