Guitar tablature for Africa by Wonderboom
#----------------------------------PLEASE NOTE---------------------------------#
#This file is the author's own work and represents their interpretation of the #
#song. You may only use this file for private study, scholarship, or research. #
#------------------------------------------------------------------------------##

     SONG: AFRICA
   ARTIST: WONDERBOOM
    ALBUM: REWIND
     TYPE: Guitar Tablature
TABBED BY: Mitchell Geere  
    EMAIL: mgeere@veilance.com
COMMENTS: Thanx for the help on the tabbing of the song Martin.
    The solo I am not sure whether it's correct, it was not tabbed by me. It was tabbed
    by GERRIE VAN EEDEN (gj_777@yahoo.com)

riff 1
e:---------------------------------------------------------------------------------|
b:-------9-9-----9h10p9-----9-9-----9h10p9-----9-9-----9h10p9-----12---10---9-10-9-|
g:---------------------------------------------------------------------------------|
d:---------------------------------------------------------------------------------|
a:---------------------------------------------------------------------------------|
e:---8-8-----8-8--------8-8-----8-8--------8-8-----8-8--------8-8----8----8-5-5----|

riff 2
e:------------------------------------|
b:------9-9-----4-4-----5-5-7-5---5---|
g:------------------------------7---5-|
d:------------------------------------|
a:------------------------------------|
e:--8-8-----3-3-----5-5---------------|

riff 3 (chorus)
    C5      G        Amin                             
                 
e:--8--8----3-3----5-5-5-5-|
b:--8--8----3-3----5-5-5-5-|
g:--9--9----4-4----5-5-5-5-|
d:--10-10---5-5----7-7-7-7-|
a:--10-10---5-5----7-7-7-7-|
e:--8--8----3-3----5-5-5-5-|

INTRO (riff 1)

VERSE 1 (riff1)
he was born in an african dawn
an orphan to the land
subjected to the eye he was
he was any woman's man

 CHORUS (riff 2)
 africa ku kwala bangwele
 africa ku kwala bangwele we mang
 africa ku kwala bangwele
 africa ku kwala bangwele we mang  ha la laaa
 
VERSE 2(riff 1)
as he grew people told him son
dont you trust anyone
you learn how to trust a stone
you learn how to be a man


 CHORUS (riff 3)
 africa ku kwala bangwele
 africa ku kwala bangwele we mang
 africa ku kwala bangwele
 africa ku kwala bangwele we mang  ha la laaa

LEAD INTO SOLO (riff 1)

SOLO (guitar 2 - C C C C)
     (guitar 1)
e:--------------------------------------------------------------------------------|
b:--5-5-6-6-8-8-6-6-5-5-6p5h6p5-5-5-6p5h6p5--5-5-6-6-8-8-6-6-8-8-6-6-5-5-6p5h6p5--|
g:.------------------------------------------------------------------------------.|
d:.------------------------------------------------------------------------------.|
a:--------------------------------------------------------------------------------| X2
e:--------------------------------------------------------------------------------|

riff 1  softly

VERSE 3 (riff 1)
and so he walked
through the passion of his land
till at last he cried out
can anybody hear me
can anybody hear me
can anybody hear me

 CHORUS (riff 3)
 africa ku kwala bangwele
 africa ku kwala bangwele we mang
 africa ku kwala bangwele
 africa ku kwala bangwele we mang  ha la laaa

  ( C5 let ring )
  let us sing as we walk through the dark
  hand in hand, hand in hand
 CHORUS (riff 3)
 africa ku kwala bangwele
 africa ku kwala bangwele we mang
 africa ku kwala bangwele
 africa ku kwala bangwele we mang  ha la laaa
 africa ku kwala bangwele
 africa ku kwala bangwele we mang
 africa ku kwala bangwele
 africa ku kwala bangwele we mang  ha la laaa

---------------------------
This file passed through:
       Absolute Tabs
   http://www.tabs.co.za
---------------------------