Guitar tablature for We wished by Fallen, The
#----------------------------------PLEASE NOTE---------------------------------#
#This file is the author's own work and represents their interpretation of the #
#song. You may only use this file for private study, scholarship, or research. #
#------------------------------------------------------------------------------##

Absolute Tabs Featured Band (July 2003)
http://www.tabs.co.za/featured/fallen

The Fallen - We Wished
======================


Intro
=====
                                                                          
E||-----------------------|----------------------|-----------------------|
B||--3----1----3--1--3----|--1----1----3----1----|--3--1--3----1----1----|
G||-----------------------|--0----0--------------|-------------0----0----|
D||-----------------------|----------------------|-----------------------|
A||--0---------0-----0----|--0----0----0---------|--0-----0--------------|
E||-----------------------|----------------------|-----------------------|

                                                                       
-----------------------|----------------------|-----------------------|
--3----1----3--1--3----|--1----1----3----1----|--3--1--3----1----1----|
-----------------------|--0----0--------------|-------------0----0----|
-----------------------|----------------------|-----------------------|
--3---------3-----3----|--3----3----3---------|--3-----3----3----3----|
-----------------------|----------------------|-----------------------|

                                                                       
-----------------------|----------------------|-----------------------|
--3----1----3--1--3----|--1----1----3----1----|--3--1--3----1----1----|
-----------------------|--0----0--------------|-------------0----0----|
-----------------------|----------------------|-----------------------|
--2---------2-----2----|--2----2----2---------|--2-----2----2----2----|
-----------------------|----------------------|-----------------------|

                                                                       
-----------------------|----------------------|-----------------------||
--3----1----3--1--3----|--1----1----3----1----|--3--1--3----1----1----||
-----------------------|--0----0--------------|-------------0----0----||
-----------------------|----------------------|-----------------------||
--0---------0-----0----|--0----0----0---------|--0-----0----0----0----||
-----------------------|----------------------|-----------------------||


Verse
=====
                                                                     
E||--0--------------0----|------------0---------|-------0--------------|
B||-------1--------------|--1--------------0----|------------1---------|
G||------------0---------|-------0--------------|--0--------------0----|
D||----------------------|----------------------|----------------------|
A||--0-------------------|----------------------|-------0--------------|
E||----------------------|----------------------|----------------------|

                                                                     
--0--------------0----|------------0---------|-------0--------------|
-------1--------------|--1--------------0----|------------1---------|
------------0---------|-------0--------------|--0--------------0----|
----------------------|----------------------|----------------------|
--3-------------------|----------------------|-------3--------------|
----------------------|----------------------|----------------------|

                                                                     
--0--------------0----|------------0---------|-------0--------------|
-------1--------------|--1--------------0----|------------1---------|
------------0---------|-------0--------------|--0--------------0----|
----------------------|----------------------|----------------------|
--2-------------------|----------------------|-------2--------------|
----------------------|----------------------|----------------------|

                                                                     
--0--------------0----|------------0---------|-------0--------------|
-------1--------------|--1--------------0----|------------1---------|
------------0---------|-------0--------------|--0--------------0----|
----------------------|----------------------|----------------------|
--0-------------------|----------------------|-------0--------------|
----------------------|----------------------|----------------------|

                                                                     
--3--------------3----|------------3---------|-------3--------------|
-------1--------------|--1--------------0----|------------1---------|
------------0---------|-------0--------------|--0--------------0----|
----------------------|----------------------|----------------------|
--0-------------------|----------------------|-------0--------------|
----------------------|----------------------|----------------------|

                                                                     
--3--------------3----|------------3---------|-------3--------------|
-------1--------------|--1--------------0----|------------1---------|
------------0---------|-------0--------------|--0--------------0----|
----------------------|----------------------|----------------------|
--3-------------------|----------------------|-------3--------------|
----------------------|----------------------|----------------------|

                                                                     
--3--------------3----|------------3---------|-------3--------------|
-------1--------------|--1--------------0----|------------1---------|
------------0---------|-------0--------------|--0--------------0----|
----------------------|----------------------|----------------------|
--2-------------------|----------------------|-------2--------------|
----------------------|----------------------|----------------------|

                                                                      
--3--------------3----|------------3---------|-------3--------------||
-------1--------------|--1--------------0----|------------1---------||
------------0---------|-------0--------------|--0--------------0----||
----------------------|----------------------|----------------------||
--0-------------------|----------------------|-------0--------------||
----------------------|----------------------|----------------------||


Chorus
======

E||----------------------|---------------------|----------------------|
B||----------------------|---------------------|----------1-----------|
G||---------5------------|----------4----------|----------2-----------|
D||---------5------------|----------4----------|----------2-----------|
A||---------3------------|----------2----------|----------0-----------|
E||----------------------|---------------------|----------------------|


----------------------||
----------------------||
----------------------||
---------3------------||
---------3------------||
---------1------------||

Order as follows:
=================

-----------------
|Intro            |
|                 |
|Verse            |
|Chorus           |
|Verse            |
|Chorus           |
|Solo             |
|Chorus           |
|                 |
|Intro/Outro      |
-----------------

Compiled by Markus Lourens

Official website :
http://thefallensa.2ya.com

May The Fallen be with you.


---------------------------
This file passed through:
       Absolute Tabs
   http://www.tabs.co.za
---------------------------